ISO-10303-21;
HEADER;
FILE_DESCRIPTION((''),'2;1');
FILE_NAME('417','2021-09-29T16:29:05',('Administrator'),(''),
'CREO PARAMETRIC BY PTC INC, 2018400','CREO PARAMETRIC BY PTC INC, 2018400','');
FILE_SCHEMA(('CONFIG_CONTROL_DESIGN'));
ENDSEC;
DATA;
#2=CARTESIAN_POINT('',(0.E0,0.E0,0.E0));
#3=DIRECTION('',(1.E0,0.E0,0.E0));
#4=DIRECTION('',(0.E0,-1.E0,0.E0));
#5=AXIS2_PLACEMENT_3D('',#2,#3,#4);
#7=CARTESIAN_POINT('',(0.E0,0.E0,0.E0));
#8=DIRECTION('',(1.E0,0.E0,0.E0));
#9=DIRECTION('',(0.E0,1.E0,0.E0));
#10=AXIS2_PLACEMENT_3D('',#7,#8,#9);
#12=CARTESIAN_POINT('',(0.E0,1.977437105148E-14,0.E0));
#13=DIRECTION('',(1.E0,0.E0,0.E0));
#14=DIRECTION('',(0.E0,1.E0,0.E0));
#15=AXIS2_PLACEMENT_3D('',#12,#13,#14);
#17=CARTESIAN_POINT('',(0.E0,1.977437105148E-14,0.E0));
#18=DIRECTION('',(1.E0,0.E0,0.E0));
#19=DIRECTION('',(0.E0,-1.E0,0.E0));
#20=AXIS2_PLACEMENT_3D('',#17,#18,#19);
#22=DIRECTION('',(7.071067811865E-1,7.071067811865E-1,1.026282097941E-9));
#23=VECTOR('',#22,4.242640683672E-1);
#24=CARTESIAN_POINT('',(6.169183473469E-10,-1.549999999383E0,
-1.101865643085E-9));
#25=LINE('',#24,#23);
#26=DIRECTION('',(7.071067811865E-1,-7.071067811865E-1,-1.026281768603E-9));
#27=VECTOR('',#26,4.242640683672E-1);
#28=CARTESIAN_POINT('',(6.169178710333E-10,1.549999999383E0,1.101865465089E-9));
#29=LINE('',#28,#27);
#30=CARTESIAN_POINT('',(1.49E1,0.E0,0.E0));
#31=DIRECTION('',(-1.E0,0.E0,0.E0));
#32=DIRECTION('',(0.E0,-1.E0,0.E0));
#33=AXIS2_PLACEMENT_3D('',#30,#31,#32);
#35=CARTESIAN_POINT('',(3.E-1,0.E0,0.E0));
#36=DIRECTION('',(1.E0,0.E0,0.E0));
#37=DIRECTION('',(0.E0,1.E0,0.E0));
#38=AXIS2_PLACEMENT_3D('',#35,#36,#37);
#40=CARTESIAN_POINT('',(1.49E1,0.E0,0.E0));
#41=DIRECTION('',(-1.E0,0.E0,0.E0));
#42=DIRECTION('',(0.E0,1.E0,0.E0));
#43=AXIS2_PLACEMENT_3D('',#40,#41,#42);
#45=DIRECTION('',(-1.E0,2.555744048727E-11,-4.564734096015E-11));
#46=VECTOR('',#45,1.459999999963E1);
#47=CARTESIAN_POINT('',(1.49E1,-1.25E0,0.E0));
#48=LINE('',#47,#46);
#49=CARTESIAN_POINT('',(3.E-1,0.E0,0.E0));
#50=DIRECTION('',(1.E0,0.E0,0.E0));
#51=DIRECTION('',(0.E0,-1.E0,0.E0));
#52=AXIS2_PLACEMENT_3D('',#49,#50,#51);
#54=DIRECTION('',(-1.E0,-2.555710589951E-11,4.564733833890E-11));
#55=VECTOR('',#54,1.459999999963E1);
#56=CARTESIAN_POINT('',(1.49E1,1.25E0,0.E0));
#57=LINE('',#56,#55);
#58=DIRECTION('',(-7.071067811866E-1,-7.071067811865E-1,2.550138843458E-10));
#59=VECTOR('',#58,2.121320343769E-1);
#60=CARTESIAN_POINT('',(1.499999999415E-1,2.499999999942E0,2.135395740194E-10));
#61=LINE('',#60,#59);
#62=CARTESIAN_POINT('',(6.95E0,0.E0,0.E0));
#63=DIRECTION('',(1.E0,0.E0,0.E0));
#64=DIRECTION('',(0.E0,1.E0,0.E0));
#65=AXIS2_PLACEMENT_3D('',#62,#63,#64);
#67=CARTESIAN_POINT('',(1.5E-1,0.E0,0.E0));
#68=DIRECTION('',(1.E0,0.E0,0.E0));
#69=DIRECTION('',(0.E0,1.E0,0.E0));
#70=AXIS2_PLACEMENT_3D('',#67,#68,#69);
#72=DIRECTION('',(-7.071067811865E-1,7.071067811865E-1,9.101135933270E-10));
#73=VECTOR('',#72,2.121320343852E-1);
#74=CARTESIAN_POINT('',(7.100000000102E0,2.349999999898E0,-9.551603428295E-10));
#75=LINE('',#74,#73);
#76=CARTESIAN_POINT('',(7.1E0,0.E0,0.E0));
#77=DIRECTION('',(1.E0,0.E0,0.E0));
#78=DIRECTION('',(0.E0,1.E0,0.E0));
#79=AXIS2_PLACEMENT_3D('',#76,#77,#78);
#81=CARTESIAN_POINT('',(7.1E0,0.E0,0.E0));
#82=DIRECTION('',(1.E0,0.E0,0.E0));
#83=DIRECTION('',(0.E0,-1.E0,0.E0));
#84=AXIS2_PLACEMENT_3D('',#81,#82,#83);
#86=CARTESIAN_POINT('',(7.1E0,0.E0,0.E0));
#87=DIRECTION('',(-1.E0,0.E0,0.E0));
#88=DIRECTION('',(0.E0,-1.E0,0.E0));
#89=AXIS2_PLACEMENT_3D('',#86,#87,#88);
#91=DIRECTION('',(1.E0,0.E0,0.E0));
#92=VECTOR('',#91,8.65E0);
#93=CARTESIAN_POINT('',(7.1E0,-2.E0,0.E0));
#94=LINE('',#93,#92);
#95=DIRECTION('',(1.E0,0.E0,0.E0));
#96=VECTOR('',#95,8.65E0);
#97=CARTESIAN_POINT('',(7.1E0,2.E0,0.E0));
#98=LINE('',#97,#96);
#99=CARTESIAN_POINT('',(7.1E0,0.E0,0.E0));
#100=DIRECTION('',(1.E0,0.E0,0.E0));
#101=DIRECTION('',(0.E0,-1.E0,0.E0));
#102=AXIS2_PLACEMENT_3D('',#99,#100,#101);
#104=DIRECTION('',(7.071067811865E-1,7.071067811865E-1,0.E0));
#105=VECTOR('',#104,2.121320343560E-1);
#106=CARTESIAN_POINT('',(1.575E1,-2.E0,0.E0));
#107=LINE('',#106,#105);
#108=DIRECTION('',(7.071067811865E-1,-7.071067811865E-1,0.E0));
#109=VECTOR('',#108,2.121320343560E-1);
#110=CARTESIAN_POINT('',(1.575E1,2.E0,0.E0));
#111=LINE('',#110,#109);
#112=CARTESIAN_POINT('',(1.575E1,0.E0,0.E0));
#113=DIRECTION('',(1.E0,0.E0,0.E0));
#114=DIRECTION('',(0.E0,-1.E0,0.E0));
#115=AXIS2_PLACEMENT_3D('',#112,#113,#114);
#117=CARTESIAN_POINT('',(1.575E1,0.E0,0.E0));
#118=DIRECTION('',(-1.E0,0.E0,0.E0));
#119=DIRECTION('',(0.E0,-1.E0,0.E0));
#120=AXIS2_PLACEMENT_3D('',#117,#118,#119);
#122=CARTESIAN_POINT('',(1.59E1,0.E0,0.E0));
#123=DIRECTION('',(1.E0,0.E0,0.E0));
#124=DIRECTION('',(0.E0,-1.E0,0.E0));
#125=AXIS2_PLACEMENT_3D('',#122,#123,#124);
#127=CARTESIAN_POINT('',(1.59E1,0.E0,0.E0));
#128=DIRECTION('',(-1.E0,0.E0,0.E0));
#129=DIRECTION('',(0.E0,-1.E0,0.E0));
#130=AXIS2_PLACEMENT_3D('',#127,#128,#129);
#132=CARTESIAN_POINT('',(1.57E1,0.E0,0.E0));
#133=DIRECTION('',(-1.E0,0.E0,0.E0));
#134=DIRECTION('',(0.E0,-1.E0,0.E0));
#135=AXIS2_PLACEMENT_3D('',#132,#133,#134);
#137=CARTESIAN_POINT('',(1.59E1,0.E0,0.E0));
#138=DIRECTION('',(-1.E0,0.E0,0.E0));
#139=DIRECTION('',(0.E0,-1.E0,0.E0));
#140=AXIS2_PLACEMENT_3D('',#137,#138,#139);
#142=CARTESIAN_POINT('',(1.074583333333E1,0.E0,0.E0));
#143=DIRECTION('',(0.E0,0.E0,1.E0));
#144=DIRECTION('',(9.429024583664E-1,-3.330689928628E-1,0.E0));
#145=AXIS2_PLACEMENT_3D('',#142,#143,#144);
#147=CARTESIAN_POINT('',(1.074583333333E1,0.E0,0.E0));
#148=DIRECTION('',(0.E0,0.E0,-1.E0));
#149=DIRECTION('',(9.429024583664E-1,3.330689928628E-1,0.E0));
#150=AXIS2_PLACEMENT_3D('',#147,#148,#149);
#152=CARTESIAN_POINT('',(1.57E1,0.E0,0.E0));
#153=DIRECTION('',(-1.E0,0.E0,0.E0));
#154=DIRECTION('',(0.E0,1.E0,0.E0));
#155=AXIS2_PLACEMENT_3D('',#152,#153,#154);
#157=DIRECTION('',(-1.E0,0.E0,0.E0));
#158=VECTOR('',#157,2.E-1);
#159=CARTESIAN_POINT('',(1.59E1,1.75E0,0.E0));
#160=LINE('',#159,#158);
#161=CARTESIAN_POINT('',(1.59E1,0.E0,0.E0));
#162=DIRECTION('',(1.E0,0.E0,0.E0));
#163=DIRECTION('',(0.E0,-1.E0,0.E0));
#164=AXIS2_PLACEMENT_3D('',#161,#162,#163);
#166=DIRECTION('',(-1.E0,0.E0,0.E0));
#167=VECTOR('',#166,2.E-1);
#168=CARTESIAN_POINT('',(1.59E1,-1.75E0,0.E0));
#169=LINE('',#168,#167);
#170=DIRECTION('',(-7.071067811865E-1,-7.071067811865E-1,-9.101149760629E-10));
#171=VECTOR('',#170,2.121320343852E-1);
#172=CARTESIAN_POINT('',(7.100000000102E0,-2.349999999898E0,
9.551604208337E-10));
#173=LINE('',#172,#171);
#174=CARTESIAN_POINT('',(6.95E0,0.E0,0.E0));
#175=DIRECTION('',(1.E0,0.E0,0.E0));
#176=DIRECTION('',(0.E0,-1.E0,0.E0));
#177=AXIS2_PLACEMENT_3D('',#174,#175,#176);
#179=DIRECTION('',(1.E0,-3.388008827666E-12,-1.434758336404E-10));
#180=VECTOR('',#179,6.800000000140E0);
#181=CARTESIAN_POINT('',(1.499999999415E-1,2.499999999942E0,
2.135395740194E-10));
#182=LINE('',#181,#180);
#183=CARTESIAN_POINT('',(1.5E-1,0.E0,0.E0));
#184=DIRECTION('',(1.E0,0.E0,0.E0));
#185=DIRECTION('',(0.E0,-1.E0,0.E0));
#186=AXIS2_PLACEMENT_3D('',#183,#184,#185);
#188=DIRECTION('',(1.E0,3.386180225037E-12,1.434757928234E-10));
#189=VECTOR('',#188,6.800000000140E0);
#190=CARTESIAN_POINT('',(1.499999999415E-1,-2.499999999942E0,
-2.135395117820E-10));
#191=LINE('',#190,#189);
#192=DIRECTION('',(-7.071067811865E-1,7.071067811866E-1,-2.550154498947E-10));
#193=VECTOR('',#192,2.121320343769E-1);
#194=CARTESIAN_POINT('',(1.499999999415E-1,-2.499999999942E0,
-2.135395117820E-10));
#195=LINE('',#194,#193);
#196=CARTESIAN_POINT('',(7.1E0,-2.E0,0.E0));
#197=CARTESIAN_POINT('',(1.575E1,-2.E0,0.E0));
#198=VERTEX_POINT('',#196);
#199=VERTEX_POINT('',#197);
#200=CARTESIAN_POINT('',(1.59E1,-1.85E0,0.E0));
#201=VERTEX_POINT('',#200);
#202=CARTESIAN_POINT('',(7.1E0,2.E0,0.E0));
#203=CARTESIAN_POINT('',(1.575E1,2.E0,0.E0));
#204=VERTEX_POINT('',#202);
#205=VERTEX_POINT('',#203);
#206=CARTESIAN_POINT('',(1.59E1,1.85E0,0.E0));
#207=VERTEX_POINT('',#206);
#208=CARTESIAN_POINT('',(1.59E1,-1.75E0,0.E0));
#209=CARTESIAN_POINT('',(1.59E1,1.75E0,0.E0));
#210=VERTEX_POINT('',#208);
#211=VERTEX_POINT('',#209);
#212=CARTESIAN_POINT('',(0.E0,-1.55E0,0.E0));
#213=CARTESIAN_POINT('',(0.E0,1.55E0,0.E0));
#214=VERTEX_POINT('',#212);
#215=VERTEX_POINT('',#213);
#216=CARTESIAN_POINT('',(3.E-1,-1.25E0,0.E0));
#217=CARTESIAN_POINT('',(3.E-1,1.25E0,0.E0));
#218=VERTEX_POINT('',#216);
#219=VERTEX_POINT('',#217);
#220=CARTESIAN_POINT('',(7.1E0,2.35E0,0.E0));
#221=CARTESIAN_POINT('',(7.1E0,-2.35E0,0.E0));
#222=VERTEX_POINT('',#220);
#223=VERTEX_POINT('',#221);
#224=CARTESIAN_POINT('',(6.95E0,2.5E0,0.E0));
#225=CARTESIAN_POINT('',(6.95E0,-2.5E0,0.E0));
#226=VERTEX_POINT('',#224);
#227=VERTEX_POINT('',#225);
#228=CARTESIAN_POINT('',(1.5E-1,2.5E0,0.E0));
#229=CARTESIAN_POINT('',(1.5E-1,-2.5E0,0.E0));
#230=VERTEX_POINT('',#228);
#231=VERTEX_POINT('',#229);
#232=CARTESIAN_POINT('',(0.E0,2.35E0,0.E0));
#233=CARTESIAN_POINT('',(0.E0,-2.35E0,0.E0));
#234=VERTEX_POINT('',#232);
#235=VERTEX_POINT('',#233);
#236=CARTESIAN_POINT('',(1.57E1,-1.75E0,0.E0));
#237=CARTESIAN_POINT('',(1.57E1,1.75E0,0.E0));
#238=VERTEX_POINT('',#236);
#239=VERTEX_POINT('',#237);
#240=CARTESIAN_POINT('',(1.49E1,-1.25E0,0.E0));
#241=CARTESIAN_POINT('',(1.49E1,1.25E0,0.E0));
#242=VERTEX_POINT('',#240);
#243=VERTEX_POINT('',#241);
#244=CARTESIAN_POINT('',(1.6E1,0.E0,0.E0));
#245=VERTEX_POINT('',#244);
#246=CARTESIAN_POINT('',(0.E0,0.E0,0.E0));
#247=DIRECTION('',(-1.E0,0.E0,0.E0));
#248=DIRECTION('',(0.E0,1.E0,0.E0));
#249=AXIS2_PLACEMENT_3D('',#246,#247,#248);
#250=PLANE('',#249);
#252=ORIENTED_EDGE('',*,*,#251,.T.);
#254=ORIENTED_EDGE('',*,*,#253,.T.);
#255=EDGE_LOOP('',(#252,#254));
#256=FACE_OUTER_BOUND('',#255,.F.);
#258=ORIENTED_EDGE('',*,*,#257,.F.);
#260=ORIENTED_EDGE('',*,*,#259,.F.);
#261=EDGE_LOOP('',(#258,#260));
#262=FACE_BOUND('',#261,.F.);
#263=ADVANCED_FACE('',(#256,#262),#250,.T.);
#264=CARTESIAN_POINT('',(1.500000004048E-1,0.E0,0.E0));
#265=DIRECTION('',(-1.E0,0.E0,0.E0));
#266=DIRECTION('',(0.E0,0.E0,-1.E0));
#267=AXIS2_PLACEMENT_3D('',#264,#265,#266);
#268=CONICAL_SURFACE('',#267,1.399999999595E0,4.5E1);
#269=ORIENTED_EDGE('',*,*,#257,.T.);
#271=ORIENTED_EDGE('',*,*,#270,.T.);
#273=ORIENTED_EDGE('',*,*,#272,.F.);
#275=ORIENTED_EDGE('',*,*,#274,.F.);
#276=EDGE_LOOP('',(#269,#271,#273,#275));
#277=FACE_OUTER_BOUND('',#276,.F.);
#278=ADVANCED_FACE('',(#277),#268,.F.);
#279=CARTESIAN_POINT('',(1.500000004048E-1,0.E0,0.E0));
#280=DIRECTION('',(-1.E0,0.E0,0.E0));
#281=DIRECTION('',(0.E0,0.E0,-1.E0));
#282=AXIS2_PLACEMENT_3D('',#279,#280,#281);
#283=CONICAL_SURFACE('',#282,1.399999999595E0,4.5E1);
#284=ORIENTED_EDGE('',*,*,#259,.T.);
#285=ORIENTED_EDGE('',*,*,#274,.T.);
#287=ORIENTED_EDGE('',*,*,#286,.F.);
#288=ORIENTED_EDGE('',*,*,#270,.F.);
#289=EDGE_LOOP('',(#284,#285,#287,#288));
#290=FACE_OUTER_BOUND('',#289,.F.);
#291=ADVANCED_FACE('',(#290),#283,.F.);
#292=CARTESIAN_POINT('',(1.6695E1,0.E0,0.E0));
#293=DIRECTION('',(-1.E0,0.E0,0.E0));
#294=DIRECTION('',(0.E0,1.E0,0.E0));
#295=AXIS2_PLACEMENT_3D('',#292,#293,#294);
#296=CYLINDRICAL_SURFACE('',#295,1.25E0);
#298=ORIENTED_EDGE('',*,*,#297,.T.);
#300=ORIENTED_EDGE('',*,*,#299,.T.);
#301=ORIENTED_EDGE('',*,*,#286,.T.);
#303=ORIENTED_EDGE('',*,*,#302,.F.);
#304=EDGE_LOOP('',(#298,#300,#301,#303));
#305=FACE_OUTER_BOUND('',#304,.F.);
#306=ADVANCED_FACE('',(#305),#296,.F.);
#307=CARTESIAN_POINT('',(1.49E1,0.E0,0.E0));
#308=DIRECTION('',(-1.E0,0.E0,0.E0));
#309=DIRECTION('',(0.E0,1.E0,0.E0));
#310=AXIS2_PLACEMENT_3D('',#307,#308,#309);
#311=PLANE('',#310);
#312=ORIENTED_EDGE('',*,*,#297,.F.);
#314=ORIENTED_EDGE('',*,*,#313,.F.);
#315=EDGE_LOOP('',(#312,#314));
#316=FACE_OUTER_BOUND('',#315,.F.);
#317=ADVANCED_FACE('',(#316),#311,.T.);
#318=CARTESIAN_POINT('',(1.6695E1,0.E0,0.E0));
#319=DIRECTION('',(-1.E0,0.E0,0.E0));
#320=DIRECTION('',(0.E0,1.E0,0.E0));
#321=AXIS2_PLACEMENT_3D('',#318,#319,#320);
#322=CYLINDRICAL_SURFACE('',#321,1.25E0);
#323=ORIENTED_EDGE('',*,*,#313,.T.);
#324=ORIENTED_EDGE('',*,*,#302,.T.);
#325=ORIENTED_EDGE('',*,*,#272,.T.);
#326=ORIENTED_EDGE('',*,*,#299,.F.);
#327=EDGE_LOOP('',(#323,#324,#325,#326));
#328=FACE_OUTER_BOUND('',#327,.F.);
#329=ADVANCED_FACE('',(#328),#322,.F.);
#330=CARTESIAN_POINT('',(7.499999994100E-2,1.976059377500E-14,0.E0));
#331=DIRECTION('',(1.E0,0.E0,0.E0));
#332=DIRECTION('',(0.E0,0.E0,-1.E0));
#333=AXIS2_PLACEMENT_3D('',#330,#331,#332);
#334=CONICAL_SURFACE('',#333,2.424999999941E0,4.5E1);
#336=ORIENTED_EDGE('',*,*,#335,.T.);
#338=ORIENTED_EDGE('',*,*,#337,.T.);
#339=ORIENTED_EDGE('',*,*,#251,.F.);
#341=ORIENTED_EDGE('',*,*,#340,.F.);
#342=EDGE_LOOP('',(#336,#338,#339,#341));
#343=FACE_OUTER_BOUND('',#342,.F.);
#344=ADVANCED_FACE('',(#343),#334,.T.);
#345=CARTESIAN_POINT('',(1.6695E1,0.E0,0.E0));
#346=DIRECTION('',(-1.E0,0.E0,0.E0));
#347=DIRECTION('',(0.E0,1.E0,0.E0));
#348=AXIS2_PLACEMENT_3D('',#345,#346,#347);
#349=CYLINDRICAL_SURFACE('',#348,2.5E0);
#351=ORIENTED_EDGE('',*,*,#350,.T.);
#353=ORIENTED_EDGE('',*,*,#352,.F.);
#354=ORIENTED_EDGE('',*,*,#335,.F.);
#356=ORIENTED_EDGE('',*,*,#355,.T.);
#357=EDGE_LOOP('',(#351,#353,#354,#356));
#358=FACE_OUTER_BOUND('',#357,.F.);
#359=ADVANCED_FACE('',(#358),#349,.T.);
#360=CARTESIAN_POINT('',(7.025000000098E0,0.E0,0.E0));
#361=DIRECTION('',(-1.E0,0.E0,0.E0));
#362=DIRECTION('',(0.E0,0.E0,-1.E0));
#363=AXIS2_PLACEMENT_3D('',#360,#361,#362);
#364=CONICAL_SURFACE('',#363,2.424999999902E0,4.5E1);
#366=ORIENTED_EDGE('',*,*,#365,.T.);
#368=ORIENTED_EDGE('',*,*,#367,.T.);
#369=ORIENTED_EDGE('',*,*,#350,.F.);
#371=ORIENTED_EDGE('',*,*,#370,.F.);
#372=EDGE_LOOP('',(#366,#368,#369,#371));
#373=FACE_OUTER_BOUND('',#372,.F.);
#374=ADVANCED_FACE('',(#373),#364,.T.);
#375=CARTESIAN_POINT('',(7.1E0,0.E0,0.E0));
#376=DIRECTION('',(-1.E0,0.E0,0.E0));
#377=DIRECTION('',(0.E0,1.E0,0.E0));
#378=AXIS2_PLACEMENT_3D('',#375,#376,#377);
#379=PLANE('',#378);
#380=ORIENTED_EDGE('',*,*,#365,.F.);
#382=ORIENTED_EDGE('',*,*,#381,.F.);
#383=EDGE_LOOP('',(#380,#382));
#384=FACE_OUTER_BOUND('',#383,.F.);
#386=ORIENTED_EDGE('',*,*,#385,.F.);
#388=ORIENTED_EDGE('',*,*,#387,.T.);
#389=EDGE_LOOP('',(#386,#388));
#390=FACE_BOUND('',#389,.F.);
#391=ADVANCED_FACE('',(#384,#390),#379,.F.);
#392=CARTESIAN_POINT('',(1.6695E1,0.E0,0.E0));
#393=DIRECTION('',(-1.E0,0.E0,0.E0));
#394=DIRECTION('',(0.E0,1.E0,0.E0));
#395=AXIS2_PLACEMENT_3D('',#392,#393,#394);
#396=CYLINDRICAL_SURFACE('',#395,2.E0);
#398=ORIENTED_EDGE('',*,*,#397,.F.);
#399=ORIENTED_EDGE('',*,*,#385,.T.);
#401=ORIENTED_EDGE('',*,*,#400,.T.);
#403=ORIENTED_EDGE('',*,*,#402,.F.);
#404=EDGE_LOOP('',(#398,#399,#401,#403));
#405=FACE_OUTER_BOUND('',#404,.F.);
#406=ADVANCED_FACE('',(#405),#396,.T.);
#407=CARTESIAN_POINT('',(1.6695E1,0.E0,0.E0));
#408=DIRECTION('',(-1.E0,0.E0,0.E0));
#409=DIRECTION('',(0.E0,1.E0,0.E0));
#410=AXIS2_PLACEMENT_3D('',#407,#408,#409);
#411=CYLINDRICAL_SURFACE('',#410,2.E0);
#412=ORIENTED_EDGE('',*,*,#397,.T.);
#414=ORIENTED_EDGE('',*,*,#413,.T.);
#415=ORIENTED_EDGE('',*,*,#400,.F.);
#416=ORIENTED_EDGE('',*,*,#387,.F.);
#417=EDGE_LOOP('',(#412,#414,#415,#416));
#418=FACE_OUTER_BOUND('',#417,.F.);
#419=ADVANCED_FACE('',(#418),#411,.T.);
#420=CARTESIAN_POINT('',(1.5825E1,0.E0,0.E0));
#421=DIRECTION('',(-1.E0,0.E0,0.E0));
#422=DIRECTION('',(0.E0,1.E0,0.E0));
#423=AXIS2_PLACEMENT_3D('',#420,#421,#422);
#424=CONICAL_SURFACE('',#423,1.925E0,4.5E1);
#426=ORIENTED_EDGE('',*,*,#425,.T.);
#428=ORIENTED_EDGE('',*,*,#427,.T.);
#430=ORIENTED_EDGE('',*,*,#429,.F.);
#431=ORIENTED_EDGE('',*,*,#413,.F.);
#432=EDGE_LOOP('',(#426,#428,#430,#431));
#433=FACE_OUTER_BOUND('',#432,.F.);
#434=ADVANCED_FACE('',(#433),#424,.T.);
#435=CARTESIAN_POINT('',(1.5825E1,0.E0,0.E0));
#436=DIRECTION('',(-1.E0,0.E0,0.E0));
#437=DIRECTION('',(0.E0,1.E0,0.E0));
#438=AXIS2_PLACEMENT_3D('',#435,#436,#437);
#439=CONICAL_SURFACE('',#438,1.925E0,4.5E1);
#440=ORIENTED_EDGE('',*,*,#425,.F.);
#441=ORIENTED_EDGE('',*,*,#402,.T.);
#442=ORIENTED_EDGE('',*,*,#429,.T.);
#444=ORIENTED_EDGE('',*,*,#443,.F.);
#445=EDGE_LOOP('',(#440,#441,#442,#444));
#446=FACE_OUTER_BOUND('',#445,.F.);
#447=ADVANCED_FACE('',(#446),#439,.T.);
#448=CARTESIAN_POINT('',(1.59E1,0.E0,0.E0));
#449=DIRECTION('',(-1.E0,0.E0,0.E0));
#450=DIRECTION('',(0.E0,1.E0,0.E0));
#451=AXIS2_PLACEMENT_3D('',#448,#449,#450);
#452=PLANE('',#451);
#453=ORIENTED_EDGE('',*,*,#427,.F.);
#454=ORIENTED_EDGE('',*,*,#443,.T.);
#455=EDGE_LOOP('',(#453,#454));
#456=FACE_OUTER_BOUND('',#455,.F.);
#458=ORIENTED_EDGE('',*,*,#457,.F.);
#460=ORIENTED_EDGE('',*,*,#459,.T.);
#461=EDGE_LOOP('',(#458,#460));
#462=FACE_BOUND('',#461,.F.);
#463=ADVANCED_FACE('',(#456,#462),#452,.F.);
#464=CARTESIAN_POINT('',(1.6695E1,0.E0,0.E0));
#465=DIRECTION('',(-1.E0,0.E0,0.E0));
#466=DIRECTION('',(0.E0,1.E0,0.E0));
#467=AXIS2_PLACEMENT_3D('',#464,#465,#466);
#468=CYLINDRICAL_SURFACE('',#467,1.75E0);
#470=ORIENTED_EDGE('',*,*,#469,.F.);
#472=ORIENTED_EDGE('',*,*,#471,.F.);
#473=ORIENTED_EDGE('',*,*,#457,.T.);
#475=ORIENTED_EDGE('',*,*,#474,.T.);
#476=EDGE_LOOP('',(#470,#472,#473,#475));
#477=FACE_OUTER_BOUND('',#476,.F.);
#478=ADVANCED_FACE('',(#477),#468,.F.);
#479=CARTESIAN_POINT('',(1.074583333333E1,0.E0,0.E0));
#480=DIRECTION('',(-1.E0,0.E0,0.E0));
#481=DIRECTION('',(0.E0,1.E0,0.E0));
#482=AXIS2_PLACEMENT_3D('',#479,#480,#481);
#483=SPHERICAL_SURFACE('',#482,5.254166666667E0);
#484=ORIENTED_EDGE('',*,*,#469,.T.);
#486=ORIENTED_EDGE('',*,*,#485,.T.);
#488=ORIENTED_EDGE('',*,*,#487,.F.);
#489=EDGE_LOOP('',(#484,#486,#488));
#490=FACE_OUTER_BOUND('',#489,.F.);
#491=ADVANCED_FACE('',(#490),#483,.T.);
#492=CARTESIAN_POINT('',(1.074583333333E1,0.E0,0.E0));
#493=DIRECTION('',(-1.E0,0.E0,0.E0));
#494=DIRECTION('',(0.E0,1.E0,0.E0));
#495=AXIS2_PLACEMENT_3D('',#492,#493,#494);
#496=SPHERICAL_SURFACE('',#495,5.254166666667E0);
#498=ORIENTED_EDGE('',*,*,#497,.T.);
#499=ORIENTED_EDGE('',*,*,#487,.T.);
#500=ORIENTED_EDGE('',*,*,#485,.F.);
#501=EDGE_LOOP('',(#498,#499,#500));
#502=FACE_OUTER_BOUND('',#501,.F.);
#503=ADVANCED_FACE('',(#502),#496,.T.);
#504=CARTESIAN_POINT('',(1.6695E1,0.E0,0.E0));
#505=DIRECTION('',(-1.E0,0.E0,0.E0));
#506=DIRECTION('',(0.E0,1.E0,0.E0));
#507=AXIS2_PLACEMENT_3D('',#504,#505,#506);
#508=CYLINDRICAL_SURFACE('',#507,1.75E0);
#509=ORIENTED_EDGE('',*,*,#497,.F.);
#510=ORIENTED_EDGE('',*,*,#474,.F.);
#511=ORIENTED_EDGE('',*,*,#459,.F.);
#512=ORIENTED_EDGE('',*,*,#471,.T.);
#513=EDGE_LOOP('',(#509,#510,#511,#512));
#514=FACE_OUTER_BOUND('',#513,.F.);
#515=ADVANCED_FACE('',(#514),#508,.F.);
#516=CARTESIAN_POINT('',(7.025000000098E0,0.E0,0.E0));
#517=DIRECTION('',(-1.E0,0.E0,0.E0));
#518=DIRECTION('',(0.E0,0.E0,-1.E0));
#519=AXIS2_PLACEMENT_3D('',#516,#517,#518);
#520=CONICAL_SURFACE('',#519,2.424999999902E0,4.5E1);
#521=ORIENTED_EDGE('',*,*,#381,.T.);
#522=ORIENTED_EDGE('',*,*,#370,.T.);
#524=ORIENTED_EDGE('',*,*,#523,.F.);
#525=ORIENTED_EDGE('',*,*,#367,.F.);
#526=EDGE_LOOP('',(#521,#522,#524,#525));
#527=FACE_OUTER_BOUND('',#526,.F.);
#528=ADVANCED_FACE('',(#527),#520,.T.);
#529=CARTESIAN_POINT('',(1.6695E1,0.E0,0.E0));
#530=DIRECTION('',(-1.E0,0.E0,0.E0));
#531=DIRECTION('',(0.E0,1.E0,0.E0));
#532=AXIS2_PLACEMENT_3D('',#529,#530,#531);
#533=CYLINDRICAL_SURFACE('',#532,2.5E0);
#534=ORIENTED_EDGE('',*,*,#523,.T.);
#535=ORIENTED_EDGE('',*,*,#355,.F.);
#537=ORIENTED_EDGE('',*,*,#536,.F.);
#538=ORIENTED_EDGE('',*,*,#352,.T.);
#539=EDGE_LOOP('',(#534,#535,#537,#538));
#540=FACE_OUTER_BOUND('',#539,.F.);
#541=ADVANCED_FACE('',(#540),#533,.T.);
#542=CARTESIAN_POINT('',(7.499999994099E-2,1.976059377500E-14,0.E0));
#543=DIRECTION('',(1.E0,0.E0,0.E0));
#544=DIRECTION('',(0.E0,0.E0,-1.E0));
#545=AXIS2_PLACEMENT_3D('',#542,#543,#544);
#546=CONICAL_SURFACE('',#545,2.424999999941E0,4.5E1);
#547=ORIENTED_EDGE('',*,*,#536,.T.);
#548=ORIENTED_EDGE('',*,*,#340,.T.);
#549=ORIENTED_EDGE('',*,*,#253,.F.);
#550=ORIENTED_EDGE('',*,*,#337,.F.);
#551=EDGE_LOOP('',(#547,#548,#549,#550));
#552=FACE_OUTER_BOUND('',#551,.F.);
#553=ADVANCED_FACE('',(#552),#546,.T.);
#554=CLOSED_SHELL('',(#263,#278,#291,#306,#317,#329,#344,#359,#374,#391,#406,
#419,#434,#447,#463,#478,#491,#503,#515,#528,#541,#553));
#555=CARTESIAN_POINT('',(5.E-2,0.E0,0.E0));
#556=DIRECTION('',(1.E0,0.E0,0.E0));
#557=DIRECTION('',(0.E0,-1.E0,0.E0));
#558=AXIS2_PLACEMENT_3D('',#555,#556,#557);
#560=CARTESIAN_POINT('',(5.E-2,0.E0,0.E0));
#561=DIRECTION('',(1.E0,0.E0,0.E0));
#562=DIRECTION('',(0.E0,1.E0,0.E0));
#563=AXIS2_PLACEMENT_3D('',#560,#561,#562);
#565=DIRECTION('',(1.E0,0.E0,0.E0));
#566=VECTOR('',#565,4.95E0);
#567=CARTESIAN_POINT('',(5.E-2,-1.5E0,0.E0));
#568=LINE('',#567,#566);
#569=DIRECTION('',(1.E0,0.E0,0.E0));
#570=VECTOR('',#569,4.95E0);
#571=CARTESIAN_POINT('',(4.999999999999E-2,1.5E0,0.E0));
#572=LINE('',#571,#570);
#573=CARTESIAN_POINT('',(5.E0,0.E0,0.E0));
#574=DIRECTION('',(1.E0,0.E0,0.E0));
#575=DIRECTION('',(0.E0,1.E0,0.E0));
#576=AXIS2_PLACEMENT_3D('',#573,#574,#575);
#578=CARTESIAN_POINT('',(5.E0,0.E0,0.E0));
#579=DIRECTION('',(-1.E0,0.E0,0.E0));
#580=DIRECTION('',(0.E0,1.E0,0.E0));
#581=AXIS2_PLACEMENT_3D('',#578,#579,#580);
#583=CARTESIAN_POINT('',(5.E0,0.E0,0.E0));
#584=DIRECTION('',(-1.E0,0.E0,0.E0));
#585=DIRECTION('',(0.E0,-1.E0,0.E0));
#586=AXIS2_PLACEMENT_3D('',#583,#584,#585);
#588=CARTESIAN_POINT('',(5.E0,0.E0,0.E0));
#589=DIRECTION('',(-1.E0,0.E0,0.E0));
#590=DIRECTION('',(0.E0,1.E0,0.E0));
#591=AXIS2_PLACEMENT_3D('',#588,#589,#590);
#593=CARTESIAN_POINT('',(5.E0,1.5E0,0.E0));
#594=CARTESIAN_POINT('',(5.E0,-1.5E0,0.E0));
#595=VERTEX_POINT('',#593);
#596=VERTEX_POINT('',#594);
#597=CARTESIAN_POINT('',(5.E-2,1.5E0,0.E0));
#598=CARTESIAN_POINT('',(5.E-2,-1.5E0,0.E0));
#599=VERTEX_POINT('',#597);
#600=VERTEX_POINT('',#598);
#601=CARTESIAN_POINT('',(5.E0,-1.25E0,0.E0));
#602=CARTESIAN_POINT('',(5.E0,1.25E0,0.E0));
#603=VERTEX_POINT('',#601);
#604=VERTEX_POINT('',#602);
#605=CARTESIAN_POINT('',(1.836450000001E1,0.E0,0.E0));
#606=DIRECTION('',(-1.E0,0.E0,0.E0));
#607=DIRECTION('',(0.E0,1.E0,0.E0));
#608=AXIS2_PLACEMENT_3D('',#605,#606,#607);
#609=CYLINDRICAL_SURFACE('',#608,1.5E0);
#611=ORIENTED_EDGE('',*,*,#610,.T.);
#613=ORIENTED_EDGE('',*,*,#612,.T.);
#615=ORIENTED_EDGE('',*,*,#614,.T.);
#617=ORIENTED_EDGE('',*,*,#616,.F.);
#618=EDGE_LOOP('',(#611,#613,#615,#617));
#619=FACE_OUTER_BOUND('',#618,.F.);
#620=ADVANCED_FACE('',(#619),#609,.F.);
#621=CARTESIAN_POINT('',(1.836450000001E1,0.E0,0.E0));
#622=DIRECTION('',(-1.E0,0.E0,0.E0));
#623=DIRECTION('',(0.E0,1.E0,0.E0));
#624=AXIS2_PLACEMENT_3D('',#621,#622,#623);
#625=CYLINDRICAL_SURFACE('',#624,1.5E0);
#627=ORIENTED_EDGE('',*,*,#626,.T.);
#628=ORIENTED_EDGE('',*,*,#616,.T.);
#630=ORIENTED_EDGE('',*,*,#629,.F.);
#631=ORIENTED_EDGE('',*,*,#612,.F.);
#632=EDGE_LOOP('',(#627,#628,#630,#631));
#633=FACE_OUTER_BOUND('',#632,.F.);
#634=ADVANCED_FACE('',(#633),#625,.F.);
#635=CARTESIAN_POINT('',(5.E0,0.E0,0.E0));
#636=DIRECTION('',(-1.E0,0.E0,0.E0));
#637=DIRECTION('',(0.E0,1.E0,0.E0));
#638=AXIS2_PLACEMENT_3D('',#635,#636,#637);
#639=PLANE('',#638);
#640=ORIENTED_EDGE('',*,*,#629,.T.);
#641=ORIENTED_EDGE('',*,*,#614,.F.);
#642=EDGE_LOOP('',(#640,#641));
#643=FACE_OUTER_BOUND('',#642,.F.);
#645=ORIENTED_EDGE('',*,*,#644,.T.);
#647=ORIENTED_EDGE('',*,*,#646,.T.);
#648=EDGE_LOOP('',(#645,#647));
#649=FACE_BOUND('',#648,.F.);
#650=ADVANCED_FACE('',(#643,#649),#639,.T.);
#651=OPEN_SHELL('',(#620,#634,#650));
#652=MANIFOLD_SOLID_BREP('',#554);
#653=SHELL_BASED_SURFACE_MODEL('',(#651));
#655=DIMENSIONAL_EXPONENTS(0.E0,0.E0,0.E0,0.E0,0.E0,0.E0,0.E0);
#657=PLANE_ANGLE_MEASURE_WITH_UNIT(PLANE_ANGLE_MEASURE(1.745329251994E-2),#656);
#658=(CONVERSION_BASED_UNIT('DEGREE',#657)NAMED_UNIT(*)PLANE_ANGLE_UNIT());
#660=UNCERTAINTY_MEASURE_WITH_UNIT(LENGTH_MEASURE(1.766706338052E-3),#654,
'closure',
'Maximum model space distance between geometric entities at asserted connectivities');
#661=(GEOMETRIC_REPRESENTATION_CONTEXT(3)GLOBAL_UNCERTAINTY_ASSIGNED_CONTEXT((
#660))GLOBAL_UNIT_ASSIGNED_CONTEXT((#654,#658,#659))REPRESENTATION_CONTEXT
('ID1','3'));
#664=CARTESIAN_POINT('',(0.E0,0.E0,0.E0));
#665=DIRECTION('',(0.E0,0.E0,1.E0));
#666=DIRECTION('',(1.E0,0.E0,0.E0));
#669=SHAPE_REPRESENTATION_RELATIONSHIP('','',#668,#662);
#670=SHAPE_REPRESENTATION_RELATIONSHIP('','',#668,#663);
#671=APPLICATION_CONTEXT(
'CONFIGURATION CONTROLLED 3D DESIGNS OF MECHANICAL PARTS AND ASSEMBLIES');
#672=APPLICATION_PROTOCOL_DEFINITION('international standard',
'config_control_design',1994,#671);
#673=DESIGN_CONTEXT('',#671,'design');
#674=MECHANICAL_CONTEXT('',#671,'mechanical');
#675=PRODUCT('417','417','NOT SPECIFIED',(#674));
#676=PRODUCT_DEFINITION_FORMATION_WITH_SPECIFIED_SOURCE('4','LAST_VERSION',#675,
.MADE.);
#680=PRODUCT_CATEGORY('part','');
#681=PRODUCT_RELATED_PRODUCT_CATEGORY('detail','',(#675));
#682=PRODUCT_CATEGORY_RELATIONSHIP('','',#680,#681);
#683=SECURITY_CLASSIFICATION_LEVEL('unclassified');
#684=SECURITY_CLASSIFICATION('','',#683);
#685=CC_DESIGN_SECURITY_CLASSIFICATION(#684,(#676));
#686=APPROVAL_STATUS('approved');
#687=APPROVAL(#686,'');
#688=CC_DESIGN_APPROVAL(#687,(#684,#676,#677));
#689=CALENDAR_DATE(121,29,9);
#690=COORDINATED_UNIVERSAL_TIME_OFFSET(8,0,.AHEAD.);
#691=LOCAL_TIME(16,29,5.E0,#690);
#692=DATE_AND_TIME(#689,#691);
#693=APPROVAL_DATE_TIME(#692,#687);
#694=DATE_TIME_ROLE('creation_date');
#695=CC_DESIGN_DATE_AND_TIME_ASSIGNMENT(#692,#694,(#677));
#696=DATE_TIME_ROLE('classification_date');
#697=CC_DESIGN_DATE_AND_TIME_ASSIGNMENT(#692,#696,(#684));
#698=PERSON('UNSPECIFIED','UNSPECIFIED',$,$,$,$);
#699=ORGANIZATION('UNSPECIFIED','UNSPECIFIED','UNSPECIFIED');
#700=PERSON_AND_ORGANIZATION(#698,#699);
#701=APPROVAL_ROLE('approver');
#702=APPROVAL_PERSON_ORGANIZATION(#700,#687,#701);
#703=PERSON_AND_ORGANIZATION_ROLE('creator');
#704=CC_DESIGN_PERSON_AND_ORGANIZATION_ASSIGNMENT(#700,#703,(#676,#677));
#705=PERSON_AND_ORGANIZATION_ROLE('design_supplier');
#706=CC_DESIGN_PERSON_AND_ORGANIZATION_ASSIGNMENT(#700,#705,(#676));
#707=PERSON_AND_ORGANIZATION_ROLE('classification_officer');
#708=CC_DESIGN_PERSON_AND_ORGANIZATION_ASSIGNMENT(#700,#707,(#684));
#709=PERSON_AND_ORGANIZATION_ROLE('design_owner');
#710=CC_DESIGN_PERSON_AND_ORGANIZATION_ASSIGNMENT(#700,#709,(#675));
#6=CIRCLE('',#5,1.55E0);
#11=CIRCLE('',#10,1.55E0);
#16=CIRCLE('',#15,2.35E0);
#21=CIRCLE('',#20,2.35E0);
#34=CIRCLE('',#33,1.25E0);
#39=CIRCLE('',#38,1.25E0);
#44=CIRCLE('',#43,1.25E0);
#53=CIRCLE('',#52,1.25E0);
#66=CIRCLE('',#65,2.5E0);
#71=CIRCLE('',#70,2.5E0);
#80=CIRCLE('',#79,2.35E0);
#85=CIRCLE('',#84,2.35E0);
#90=CIRCLE('',#89,2.E0);
#103=CIRCLE('',#102,2.E0);
#116=CIRCLE('',#115,2.E0);
#121=CIRCLE('',#120,2.E0);
#126=CIRCLE('',#125,1.85E0);
#131=CIRCLE('',#130,1.85E0);
#136=CIRCLE('',#135,1.75E0);
#141=CIRCLE('',#140,1.75E0);
#146=CIRCLE('',#145,5.254166666667E0);
#151=CIRCLE('',#150,5.254166666667E0);
#156=CIRCLE('',#155,1.75E0);
#165=CIRCLE('',#164,1.75E0);
#178=CIRCLE('',#177,2.5E0);
#187=CIRCLE('',#186,2.5E0);
#251=EDGE_CURVE('',#234,#235,#16,.T.);
#253=EDGE_CURVE('',#235,#234,#21,.T.);
#257=EDGE_CURVE('',#214,#215,#6,.T.);
#259=EDGE_CURVE('',#215,#214,#11,.T.);
#270=EDGE_CURVE('',#215,#219,#29,.T.);
#272=EDGE_CURVE('',#218,#219,#53,.T.);
#274=EDGE_CURVE('',#214,#218,#25,.T.);
#286=EDGE_CURVE('',#219,#218,#39,.T.);
#297=EDGE_CURVE('',#242,#243,#34,.T.);
#299=EDGE_CURVE('',#243,#219,#57,.T.);
#302=EDGE_CURVE('',#242,#218,#48,.T.);
#313=EDGE_CURVE('',#243,#242,#44,.T.);
#335=EDGE_CURVE('',#230,#231,#71,.T.);
#337=EDGE_CURVE('',#231,#235,#195,.T.);
#340=EDGE_CURVE('',#230,#234,#61,.T.);
#350=EDGE_CURVE('',#226,#227,#66,.T.);
#352=EDGE_CURVE('',#231,#227,#191,.T.);
#355=EDGE_CURVE('',#230,#226,#182,.T.);
#365=EDGE_CURVE('',#222,#223,#80,.T.);
#367=EDGE_CURVE('',#223,#227,#173,.T.);
#370=EDGE_CURVE('',#222,#226,#75,.T.);
#381=EDGE_CURVE('',#223,#222,#85,.T.);
#385=EDGE_CURVE('',#198,#204,#90,.T.);
#387=EDGE_CURVE('',#198,#204,#103,.T.);
#397=EDGE_CURVE('',#198,#199,#94,.T.);
#400=EDGE_CURVE('',#204,#205,#98,.T.);
#402=EDGE_CURVE('',#199,#205,#121,.T.);
#413=EDGE_CURVE('',#199,#205,#116,.T.);
#425=EDGE_CURVE('',#199,#201,#107,.T.);
#427=EDGE_CURVE('',#201,#207,#126,.T.);
#429=EDGE_CURVE('',#205,#207,#111,.T.);
#443=EDGE_CURVE('',#201,#207,#131,.T.);
#457=EDGE_CURVE('',#210,#211,#141,.T.);
#459=EDGE_CURVE('',#210,#211,#165,.T.);
#469=EDGE_CURVE('',#238,#239,#136,.T.);
#471=EDGE_CURVE('',#210,#238,#169,.T.);
#474=EDGE_CURVE('',#211,#239,#160,.T.);
#485=EDGE_CURVE('',#239,#245,#151,.T.);
#487=EDGE_CURVE('',#238,#245,#146,.T.);
#497=EDGE_CURVE('',#239,#238,#156,.T.);
#523=EDGE_CURVE('',#227,#226,#178,.T.);
#536=EDGE_CURVE('',#231,#230,#187,.T.);
#559=CIRCLE('',#558,1.5E0);
#564=CIRCLE('',#563,1.5E0);
#577=CIRCLE('',#576,1.5E0);
#582=CIRCLE('',#581,1.5E0);
#587=CIRCLE('',#586,1.25E0);
#592=CIRCLE('',#591,1.25E0);
#610=EDGE_CURVE('',#600,#599,#559,.T.);
#612=EDGE_CURVE('',#599,#595,#572,.T.);
#614=EDGE_CURVE('',#595,#596,#582,.T.);
#616=EDGE_CURVE('',#600,#596,#568,.T.);
#626=EDGE_CURVE('',#599,#600,#564,.T.);
#629=EDGE_CURVE('',#595,#596,#577,.T.);
#644=EDGE_CURVE('',#603,#604,#587,.T.);
#646=EDGE_CURVE('',#604,#603,#592,.T.);
#654=(LENGTH_UNIT()NAMED_UNIT(*)SI_UNIT(.MILLI.,.METRE.));
#656=(NAMED_UNIT(*)PLANE_ANGLE_UNIT()SI_UNIT($,.RADIAN.));
#659=(NAMED_UNIT(*)SI_UNIT($,.STERADIAN.)SOLID_ANGLE_UNIT());
#662=ADVANCED_BREP_SHAPE_REPRESENTATION('',(#652),#661);
#663=MANIFOLD_SURFACE_SHAPE_REPRESENTATION('',(#653),#661);
#667=AXIS2_PLACEMENT_3D('',#664,#665,#666);
#668=SHAPE_REPRESENTATION('',(#667),#661);
#677=PRODUCT_DEFINITION('design','',#676,#673);
#678=PRODUCT_DEFINITION_SHAPE('','SHAPE FOR 417.',#677);
#679=SHAPE_DEFINITION_REPRESENTATION(#678,#668);
ENDSEC;
END-ISO-10303-21;
