ISO-10303-21;
HEADER;
FILE_DESCRIPTION((''),'2;1');
FILE_NAME('PR14L','2020-06-18T12:08:49',('Administrator'),(''),
'CREO PARAMETRIC BY PTC INC, 2018400','CREO PARAMETRIC BY PTC INC, 2018400','');
FILE_SCHEMA(('AUTOMOTIVE_DESIGN { 1 0 10303 214 1 1 1 1 }'));
ENDSEC;
DATA;
#16=CARTESIAN_POINT('',(0.E0,0.E0,-1.5E1));
#17=DIRECTION('',(0.E0,0.E0,1.E0));
#18=DIRECTION('',(-4.988876515699E-1,8.666666666667E-1,0.E0));
#19=AXIS2_PLACEMENT_3D('',#16,#17,#18);
#21=DIRECTION('',(-1.E0,0.E0,0.E0));
#22=VECTOR('',#21,2.993325909419E0);
#23=CARTESIAN_POINT('',(1.496662954710E0,2.6E0,-1.5E1));
#24=LINE('',#23,#22);
#25=CARTESIAN_POINT('',(1.15E0,0.E0,-1.5E1));
#26=DIRECTION('',(0.E0,0.E0,-1.E0));
#27=DIRECTION('',(-1.E0,0.E0,0.E0));
#28=AXIS2_PLACEMENT_3D('',#25,#26,#27);
#30=CARTESIAN_POINT('',(1.15E0,0.E0,-1.5E1));
#31=DIRECTION('',(0.E0,0.E0,-1.E0));
#32=DIRECTION('',(1.E0,0.E0,0.E0));
#33=AXIS2_PLACEMENT_3D('',#30,#31,#32);
#35=CARTESIAN_POINT('',(-1.15E0,0.E0,-1.5E1));
#36=DIRECTION('',(0.E0,0.E0,-1.E0));
#37=DIRECTION('',(-1.E0,0.E0,0.E0));
#38=AXIS2_PLACEMENT_3D('',#35,#36,#37);
#40=CARTESIAN_POINT('',(-1.15E0,0.E0,-1.5E1));
#41=DIRECTION('',(0.E0,0.E0,-1.E0));
#42=DIRECTION('',(1.E0,0.E0,0.E0));
#43=AXIS2_PLACEMENT_3D('',#40,#41,#42);
#45=DIRECTION('',(0.E0,0.E0,1.E0));
#46=VECTOR('',#45,3.E1);
#47=CARTESIAN_POINT('',(-1.496662954710E0,2.6E0,-1.5E1));
#48=LINE('',#47,#46);
#49=CARTESIAN_POINT('',(0.E0,0.E0,1.35E1));
#50=DIRECTION('',(0.E0,0.E0,-1.E0));
#51=DIRECTION('',(9.994442900377E-1,3.333333333333E-2,0.E0));
#52=AXIS2_PLACEMENT_3D('',#49,#50,#51);
#54=DIRECTION('',(0.E0,0.E0,1.E0));
#55=VECTOR('',#54,1.9E0);
#56=CARTESIAN_POINT('',(-2.998332870113E0,1.E-1,1.16E1));
#57=LINE('',#56,#55);
#58=CARTESIAN_POINT('',(0.E0,0.E0,1.16E1));
#59=DIRECTION('',(0.E0,0.E0,1.E0));
#60=DIRECTION('',(-9.994442900377E-1,3.333333333333E-2,0.E0));
#61=AXIS2_PLACEMENT_3D('',#58,#59,#60);
#63=DIRECTION('',(0.E0,0.E0,1.E0));
#64=VECTOR('',#63,1.9E0);
#65=CARTESIAN_POINT('',(2.998332870113E0,1.E-1,1.16E1));
#66=LINE('',#65,#64);
#67=DIRECTION('',(0.E0,0.E0,1.E0));
#68=VECTOR('',#67,3.E1);
#69=CARTESIAN_POINT('',(1.496662954710E0,2.6E0,-1.5E1));
#70=LINE('',#69,#68);
#71=CARTESIAN_POINT('',(0.E0,0.E0,1.5E1));
#72=DIRECTION('',(0.E0,0.E0,1.E0));
#73=DIRECTION('',(-4.988876515699E-1,8.666666666667E-1,0.E0));
#74=AXIS2_PLACEMENT_3D('',#71,#72,#73);
#76=DIRECTION('',(-1.E0,0.E0,0.E0));
#77=VECTOR('',#76,2.993325909419E0);
#78=CARTESIAN_POINT('',(1.496662954710E0,2.6E0,1.5E1));
#79=LINE('',#78,#77);
#80=CARTESIAN_POINT('',(-7.5E-1,1.E-1,1.35E1));
#81=DIRECTION('',(0.E0,0.E0,1.E0));
#82=DIRECTION('',(-1.E0,0.E0,0.E0));
#83=AXIS2_PLACEMENT_3D('',#80,#81,#82);
#85=DIRECTION('',(1.E0,0.E0,0.E0));
#86=VECTOR('',#85,1.748332870113E0);
#87=CARTESIAN_POINT('',(-2.998332870113E0,1.E-1,1.35E1));
#88=LINE('',#87,#86);
#89=DIRECTION('',(1.E0,0.E0,0.E0));
#90=VECTOR('',#89,1.748332870113E0);
#91=CARTESIAN_POINT('',(1.25E0,1.E-1,1.35E1));
#92=LINE('',#91,#90);
#93=CARTESIAN_POINT('',(7.5E-1,1.E-1,1.35E1));
#94=DIRECTION('',(0.E0,0.E0,1.E0));
#95=DIRECTION('',(-1.E0,0.E0,0.E0));
#96=AXIS2_PLACEMENT_3D('',#93,#94,#95);
#98=DIRECTION('',(1.E0,0.E0,0.E0));
#99=VECTOR('',#98,5.E-2);
#100=CARTESIAN_POINT('',(2.E-1,1.E-1,1.35E1));
#101=LINE('',#100,#99);
#102=DIRECTION('',(0.E0,-1.E0,0.E0));
#103=VECTOR('',#102,1.3E0);
#104=CARTESIAN_POINT('',(2.E-1,1.E-1,1.35E1));
#105=LINE('',#104,#103);
#106=DIRECTION('',(1.E0,0.E0,0.E0));
#107=VECTOR('',#106,4.E-1);
#108=CARTESIAN_POINT('',(-2.E-1,-1.2E0,1.35E1));
#109=LINE('',#108,#107);
#110=DIRECTION('',(0.E0,-1.E0,0.E0));
#111=VECTOR('',#110,1.3E0);
#112=CARTESIAN_POINT('',(-2.E-1,1.E-1,1.35E1));
#113=LINE('',#112,#111);
#114=DIRECTION('',(1.E0,0.E0,0.E0));
#115=VECTOR('',#114,5.E-2);
#116=CARTESIAN_POINT('',(-2.5E-1,1.E-1,1.35E1));
#117=LINE('',#116,#115);
#118=DIRECTION('',(0.E0,0.E0,1.E0));
#119=VECTOR('',#118,1.9E0);
#120=CARTESIAN_POINT('',(-1.25E0,1.E-1,1.16E1));
#121=LINE('',#120,#119);
#122=DIRECTION('',(1.E0,0.E0,0.E0));
#123=VECTOR('',#122,1.748332870113E0);
#124=CARTESIAN_POINT('',(-2.998332870113E0,1.E-1,1.16E1));
#125=LINE('',#124,#123);
#126=DIRECTION('',(0.E0,0.E0,1.E0));
#127=VECTOR('',#126,1.9E0);
#128=CARTESIAN_POINT('',(-2.5E-1,1.E-1,1.16E1));
#129=LINE('',#128,#127);
#130=DIRECTION('',(0.E0,0.E0,1.E0));
#131=VECTOR('',#130,1.9E0);
#132=CARTESIAN_POINT('',(-2.E-1,1.E-1,1.16E1));
#133=LINE('',#132,#131);
#134=DIRECTION('',(1.E0,0.E0,0.E0));
#135=VECTOR('',#134,5.E-2);
#136=CARTESIAN_POINT('',(-2.5E-1,1.E-1,1.16E1));
#137=LINE('',#136,#135);
#138=DIRECTION('',(0.E0,0.E0,1.E0));
#139=VECTOR('',#138,1.9E0);
#140=CARTESIAN_POINT('',(2.5E-1,1.E-1,1.16E1));
#141=LINE('',#140,#139);
#142=DIRECTION('',(1.E0,0.E0,0.E0));
#143=VECTOR('',#142,5.E-2);
#144=CARTESIAN_POINT('',(2.E-1,1.E-1,1.16E1));
#145=LINE('',#144,#143);
#146=DIRECTION('',(0.E0,0.E0,1.E0));
#147=VECTOR('',#146,1.9E0);
#148=CARTESIAN_POINT('',(2.E-1,1.E-1,1.16E1));
#149=LINE('',#148,#147);
#150=DIRECTION('',(0.E0,0.E0,1.E0));
#151=VECTOR('',#150,1.9E0);
#152=CARTESIAN_POINT('',(1.25E0,1.E-1,1.16E1));
#153=LINE('',#152,#151);
#154=DIRECTION('',(1.E0,0.E0,0.E0));
#155=VECTOR('',#154,1.748332870113E0);
#156=CARTESIAN_POINT('',(1.25E0,1.E-1,1.16E1));
#157=LINE('',#156,#155);
#158=CARTESIAN_POINT('',(-7.5E-1,1.E-1,1.16E1));
#159=DIRECTION('',(0.E0,0.E0,1.E0));
#160=DIRECTION('',(-1.E0,0.E0,0.E0));
#161=AXIS2_PLACEMENT_3D('',#158,#159,#160);
#163=DIRECTION('',(0.E0,-1.E0,0.E0));
#164=VECTOR('',#163,1.3E0);
#165=CARTESIAN_POINT('',(-2.E-1,1.E-1,1.16E1));
#166=LINE('',#165,#164);
#167=DIRECTION('',(1.E0,0.E0,0.E0));
#168=VECTOR('',#167,4.E-1);
#169=CARTESIAN_POINT('',(-2.E-1,-1.2E0,1.16E1));
#170=LINE('',#169,#168);
#171=DIRECTION('',(0.E0,-1.E0,0.E0));
#172=VECTOR('',#171,1.3E0);
#173=CARTESIAN_POINT('',(2.E-1,1.E-1,1.16E1));
#174=LINE('',#173,#172);
#175=CARTESIAN_POINT('',(7.5E-1,1.E-1,1.16E1));
#176=DIRECTION('',(0.E0,0.E0,1.E0));
#177=DIRECTION('',(-1.E0,0.E0,0.E0));
#178=AXIS2_PLACEMENT_3D('',#175,#176,#177);
#180=DIRECTION('',(0.E0,0.E0,1.E0));
#181=VECTOR('',#180,1.9E0);
#182=CARTESIAN_POINT('',(-2.E-1,-1.2E0,1.16E1));
#183=LINE('',#182,#181);
#184=DIRECTION('',(0.E0,0.E0,1.E0));
#185=VECTOR('',#184,1.9E0);
#186=CARTESIAN_POINT('',(2.E-1,-1.2E0,1.16E1));
#187=LINE('',#186,#185);
#188=DIRECTION('',(0.E0,0.E0,-1.E0));
#189=VECTOR('',#188,2.E1);
#190=CARTESIAN_POINT('',(5.E-2,0.E0,-1.5E1));
#191=LINE('',#190,#189);
#192=DIRECTION('',(0.E0,0.E0,-1.E0));
#193=VECTOR('',#192,2.E1);
#194=CARTESIAN_POINT('',(2.25E0,0.E0,-1.5E1));
#195=LINE('',#194,#193);
#196=CARTESIAN_POINT('',(1.15E0,0.E0,-3.5E1));
#197=DIRECTION('',(0.E0,0.E0,-1.E0));
#198=DIRECTION('',(-1.E0,0.E0,0.E0));
#199=AXIS2_PLACEMENT_3D('',#196,#197,#198);
#201=CARTESIAN_POINT('',(1.15E0,0.E0,-3.5E1));
#202=DIRECTION('',(0.E0,0.E0,-1.E0));
#203=DIRECTION('',(1.E0,0.E0,0.E0));
#204=AXIS2_PLACEMENT_3D('',#201,#202,#203);
#206=CARTESIAN_POINT('',(-1.15E0,0.E0,-3.5E1));
#207=DIRECTION('',(0.E0,0.E0,-1.E0));
#208=DIRECTION('',(-1.E0,0.E0,0.E0));
#209=AXIS2_PLACEMENT_3D('',#206,#207,#208);
#211=CARTESIAN_POINT('',(-1.15E0,0.E0,-3.5E1));
#212=DIRECTION('',(0.E0,0.E0,-1.E0));
#213=DIRECTION('',(1.E0,0.E0,0.E0));
#214=AXIS2_PLACEMENT_3D('',#211,#212,#213);
#216=DIRECTION('',(0.E0,0.E0,-1.E0));
#217=VECTOR('',#216,2.E1);
#218=CARTESIAN_POINT('',(-2.25E0,0.E0,-1.5E1));
#219=LINE('',#218,#217);
#220=DIRECTION('',(0.E0,0.E0,-1.E0));
#221=VECTOR('',#220,2.E1);
#222=CARTESIAN_POINT('',(-5.E-2,0.E0,-1.5E1));
#223=LINE('',#222,#221);
#224=CARTESIAN_POINT('',(-1.496662954710E0,2.6E0,-1.5E1));
#225=CARTESIAN_POINT('',(1.496662954710E0,2.6E0,-1.5E1));
#226=VERTEX_POINT('',#224);
#227=VERTEX_POINT('',#225);
#228=CARTESIAN_POINT('',(-1.496662954710E0,2.6E0,1.5E1));
#229=CARTESIAN_POINT('',(1.496662954710E0,2.6E0,1.5E1));
#230=VERTEX_POINT('',#228);
#231=VERTEX_POINT('',#229);
#232=CARTESIAN_POINT('',(5.E-2,0.E0,-3.5E1));
#233=CARTESIAN_POINT('',(2.25E0,0.E0,-3.5E1));
#234=VERTEX_POINT('',#232);
#235=VERTEX_POINT('',#233);
#236=CARTESIAN_POINT('',(-2.25E0,0.E0,-3.5E1));
#237=CARTESIAN_POINT('',(-5.E-2,0.E0,-3.5E1));
#238=VERTEX_POINT('',#236);
#239=VERTEX_POINT('',#237);
#240=CARTESIAN_POINT('',(5.E-2,0.E0,-1.5E1));
#241=CARTESIAN_POINT('',(2.25E0,0.E0,-1.5E1));
#242=VERTEX_POINT('',#240);
#243=VERTEX_POINT('',#241);
#244=CARTESIAN_POINT('',(-2.25E0,0.E0,-1.5E1));
#245=CARTESIAN_POINT('',(-5.E-2,0.E0,-1.5E1));
#246=VERTEX_POINT('',#244);
#247=VERTEX_POINT('',#245);
#248=CARTESIAN_POINT('',(2.998332870113E0,1.E-1,1.35E1));
#249=CARTESIAN_POINT('',(-2.998332870113E0,1.E-1,1.35E1));
#250=VERTEX_POINT('',#248);
#251=VERTEX_POINT('',#249);
#252=CARTESIAN_POINT('',(-2.998332870113E0,1.E-1,1.16E1));
#253=CARTESIAN_POINT('',(2.998332870113E0,1.E-1,1.16E1));
#254=VERTEX_POINT('',#252);
#255=VERTEX_POINT('',#253);
#256=CARTESIAN_POINT('',(-1.25E0,1.E-1,1.35E1));
#257=CARTESIAN_POINT('',(-2.5E-1,1.E-1,1.35E1));
#258=VERTEX_POINT('',#256);
#259=VERTEX_POINT('',#257);
#260=CARTESIAN_POINT('',(2.5E-1,1.E-1,1.35E1));
#261=CARTESIAN_POINT('',(1.25E0,1.E-1,1.35E1));
#262=VERTEX_POINT('',#260);
#263=VERTEX_POINT('',#261);
#264=CARTESIAN_POINT('',(2.E-1,1.E-1,1.35E1));
#265=CARTESIAN_POINT('',(2.E-1,-1.2E0,1.35E1));
#266=VERTEX_POINT('',#264);
#267=VERTEX_POINT('',#265);
#268=CARTESIAN_POINT('',(-2.E-1,1.E-1,1.35E1));
#269=CARTESIAN_POINT('',(-2.E-1,-1.2E0,1.35E1));
#270=VERTEX_POINT('',#268);
#271=VERTEX_POINT('',#269);
#272=CARTESIAN_POINT('',(-1.25E0,1.E-1,1.16E1));
#273=CARTESIAN_POINT('',(-2.5E-1,1.E-1,1.16E1));
#274=VERTEX_POINT('',#272);
#275=VERTEX_POINT('',#273);
#276=CARTESIAN_POINT('',(2.5E-1,1.E-1,1.16E1));
#277=CARTESIAN_POINT('',(1.25E0,1.E-1,1.16E1));
#278=VERTEX_POINT('',#276);
#279=VERTEX_POINT('',#277);
#280=CARTESIAN_POINT('',(2.E-1,1.E-1,1.16E1));
#281=CARTESIAN_POINT('',(2.E-1,-1.2E0,1.16E1));
#282=VERTEX_POINT('',#280);
#283=VERTEX_POINT('',#281);
#284=CARTESIAN_POINT('',(-2.E-1,1.E-1,1.16E1));
#285=CARTESIAN_POINT('',(-2.E-1,-1.2E0,1.16E1));
#286=VERTEX_POINT('',#284);
#287=VERTEX_POINT('',#285);
#288=CARTESIAN_POINT('',(0.E0,0.E0,-1.5E1));
#289=DIRECTION('',(0.E0,0.E0,1.E0));
#290=DIRECTION('',(1.E0,0.E0,0.E0));
#291=AXIS2_PLACEMENT_3D('',#288,#289,#290);
#292=PLANE('',#291);
#294=ORIENTED_EDGE('',*,*,#293,.T.);
#296=ORIENTED_EDGE('',*,*,#295,.T.);
#297=EDGE_LOOP('',(#294,#296));
#298=FACE_OUTER_BOUND('',#297,.F.);
#300=ORIENTED_EDGE('',*,*,#299,.T.);
#302=ORIENTED_EDGE('',*,*,#301,.T.);
#303=EDGE_LOOP('',(#300,#302));
#304=FACE_BOUND('',#303,.F.);
#306=ORIENTED_EDGE('',*,*,#305,.T.);
#308=ORIENTED_EDGE('',*,*,#307,.T.);
#309=EDGE_LOOP('',(#306,#308));
#310=FACE_BOUND('',#309,.F.);
#312=CARTESIAN_POINT('',(0.E0,0.E0,-1.5E1));
#313=DIRECTION('',(0.E0,0.E0,1.E0));
#314=DIRECTION('',(1.E0,0.E0,0.E0));
#315=AXIS2_PLACEMENT_3D('',#312,#313,#314);
#316=CYLINDRICAL_SURFACE('',#315,3.E0);
#317=ORIENTED_EDGE('',*,*,#293,.F.);
#319=ORIENTED_EDGE('',*,*,#318,.T.);
#321=ORIENTED_EDGE('',*,*,#320,.T.);
#323=ORIENTED_EDGE('',*,*,#322,.F.);
#324=EDGE_LOOP('',(#317,#319,#321,#323));
#325=FACE_OUTER_BOUND('',#324,.F.);
#327=ORIENTED_EDGE('',*,*,#326,.T.);
#329=ORIENTED_EDGE('',*,*,#328,.F.);
#331=ORIENTED_EDGE('',*,*,#330,.T.);
#333=ORIENTED_EDGE('',*,*,#332,.T.);
#334=EDGE_LOOP('',(#327,#329,#331,#333));
#335=FACE_BOUND('',#334,.F.);
#337=CARTESIAN_POINT('',(1.496662954710E0,2.6E0,-1.5E1));
#338=DIRECTION('',(0.E0,1.E0,0.E0));
#339=DIRECTION('',(-1.E0,0.E0,0.E0));
#340=AXIS2_PLACEMENT_3D('',#337,#338,#339);
#341=PLANE('',#340);
#342=ORIENTED_EDGE('',*,*,#295,.F.);
#343=ORIENTED_EDGE('',*,*,#322,.T.);
#345=ORIENTED_EDGE('',*,*,#344,.T.);
#346=ORIENTED_EDGE('',*,*,#318,.F.);
#347=EDGE_LOOP('',(#342,#343,#345,#346));
#348=FACE_OUTER_BOUND('',#347,.F.);
#350=CARTESIAN_POINT('',(0.E0,0.E0,1.5E1));
#351=DIRECTION('',(0.E0,0.E0,1.E0));
#352=DIRECTION('',(1.E0,0.E0,0.E0));
#353=AXIS2_PLACEMENT_3D('',#350,#351,#352);
#354=PLANE('',#353);
#355=ORIENTED_EDGE('',*,*,#320,.F.);
#356=ORIENTED_EDGE('',*,*,#344,.F.);
#357=EDGE_LOOP('',(#355,#356));
#358=FACE_OUTER_BOUND('',#357,.F.);
#360=CARTESIAN_POINT('',(-6.335E0,1.E-1,1.35E1));
#361=DIRECTION('',(0.E0,0.E0,1.E0));
#362=DIRECTION('',(0.E0,-1.E0,0.E0));
#363=AXIS2_PLACEMENT_3D('',#360,#361,#362);
#364=PLANE('',#363);
#366=ORIENTED_EDGE('',*,*,#365,.F.);
#368=ORIENTED_EDGE('',*,*,#367,.F.);
#369=ORIENTED_EDGE('',*,*,#326,.F.);
#371=ORIENTED_EDGE('',*,*,#370,.F.);
#373=ORIENTED_EDGE('',*,*,#372,.F.);
#375=ORIENTED_EDGE('',*,*,#374,.F.);
#377=ORIENTED_EDGE('',*,*,#376,.T.);
#379=ORIENTED_EDGE('',*,*,#378,.F.);
#381=ORIENTED_EDGE('',*,*,#380,.F.);
#383=ORIENTED_EDGE('',*,*,#382,.F.);
#384=EDGE_LOOP('',(#366,#368,#369,#371,#373,#375,#377,#379,#381,#383));
#385=FACE_OUTER_BOUND('',#384,.F.);
#387=CARTESIAN_POINT('',(-7.5E-1,1.E-1,1.16E1));
#388=DIRECTION('',(0.E0,0.E0,1.E0));
#389=DIRECTION('',(-1.E0,0.E0,0.E0));
#390=AXIS2_PLACEMENT_3D('',#387,#388,#389);
#391=CYLINDRICAL_SURFACE('',#390,5.E-1);
#392=ORIENTED_EDGE('',*,*,#365,.T.);
#394=ORIENTED_EDGE('',*,*,#393,.F.);
#396=ORIENTED_EDGE('',*,*,#395,.F.);
#398=ORIENTED_EDGE('',*,*,#397,.T.);
#399=EDGE_LOOP('',(#392,#394,#396,#398));
#400=FACE_OUTER_BOUND('',#399,.F.);
#402=FILL_AREA_STYLE_COLOUR('',#9);
#403=FILL_AREA_STYLE('',(#402));
#404=SURFACE_STYLE_FILL_AREA(#403);
#405=SURFACE_SIDE_STYLE('',(#404));
#406=SURFACE_STYLE_USAGE(.POSITIVE.,#405);
#407=PRESENTATION_STYLE_ASSIGNMENT((#406));
#408=STYLED_ITEM('',(#407),#401);
#409=CARTESIAN_POINT('',(-6.335E0,1.E-1,1.16E1));
#410=DIRECTION('',(0.E0,1.E0,0.E0));
#411=DIRECTION('',(0.E0,0.E0,1.E0));
#412=AXIS2_PLACEMENT_3D('',#409,#410,#411);
#413=PLANE('',#412);
#414=ORIENTED_EDGE('',*,*,#397,.F.);
#416=ORIENTED_EDGE('',*,*,#415,.F.);
#417=ORIENTED_EDGE('',*,*,#328,.T.);
#418=ORIENTED_EDGE('',*,*,#367,.T.);
#419=EDGE_LOOP('',(#414,#416,#417,#418));
#420=FACE_OUTER_BOUND('',#419,.F.);
#422=CARTESIAN_POINT('',(-6.335E0,1.E-1,1.16E1));
#423=DIRECTION('',(0.E0,1.E0,0.E0));
#424=DIRECTION('',(0.E0,0.E0,1.E0));
#425=AXIS2_PLACEMENT_3D('',#422,#423,#424);
#426=PLANE('',#425);
#427=ORIENTED_EDGE('',*,*,#393,.T.);
#428=ORIENTED_EDGE('',*,*,#382,.T.);
#430=ORIENTED_EDGE('',*,*,#429,.F.);
#432=ORIENTED_EDGE('',*,*,#431,.F.);
#433=EDGE_LOOP('',(#427,#428,#430,#432));
#434=FACE_OUTER_BOUND('',#433,.F.);
#436=CARTESIAN_POINT('',(-6.335E0,1.E-1,1.16E1));
#437=DIRECTION('',(0.E0,1.E0,0.E0));
#438=DIRECTION('',(0.E0,0.E0,1.E0));
#439=AXIS2_PLACEMENT_3D('',#436,#437,#438);
#440=PLANE('',#439);
#442=ORIENTED_EDGE('',*,*,#441,.F.);
#444=ORIENTED_EDGE('',*,*,#443,.F.);
#446=ORIENTED_EDGE('',*,*,#445,.T.);
#447=ORIENTED_EDGE('',*,*,#374,.T.);
#448=EDGE_LOOP('',(#442,#444,#446,#447));
#449=FACE_OUTER_BOUND('',#448,.F.);
#451=CARTESIAN_POINT('',(-6.335E0,1.E-1,1.16E1));
#452=DIRECTION('',(0.E0,1.E0,0.E0));
#453=DIRECTION('',(0.E0,0.E0,1.E0));
#454=AXIS2_PLACEMENT_3D('',#451,#452,#453);
#455=PLANE('',#454);
#457=ORIENTED_EDGE('',*,*,#456,.T.);
#458=ORIENTED_EDGE('',*,*,#370,.T.);
#459=ORIENTED_EDGE('',*,*,#332,.F.);
#461=ORIENTED_EDGE('',*,*,#460,.F.);
#462=EDGE_LOOP('',(#457,#458,#459,#461));
#463=FACE_OUTER_BOUND('',#462,.F.);
#465=CARTESIAN_POINT('',(-6.335E0,-3.E0,1.16E1));
#466=DIRECTION('',(0.E0,0.E0,-1.E0));
#467=DIRECTION('',(0.E0,1.E0,0.E0));
#468=AXIS2_PLACEMENT_3D('',#465,#466,#467);
#469=PLANE('',#468);
#470=ORIENTED_EDGE('',*,*,#395,.T.);
#471=ORIENTED_EDGE('',*,*,#431,.T.);
#473=ORIENTED_EDGE('',*,*,#472,.T.);
#475=ORIENTED_EDGE('',*,*,#474,.T.);
#477=ORIENTED_EDGE('',*,*,#476,.F.);
#478=ORIENTED_EDGE('',*,*,#443,.T.);
#480=ORIENTED_EDGE('',*,*,#479,.T.);
#481=ORIENTED_EDGE('',*,*,#460,.T.);
#482=ORIENTED_EDGE('',*,*,#330,.F.);
#483=ORIENTED_EDGE('',*,*,#415,.T.);
#484=EDGE_LOOP('',(#470,#471,#473,#475,#477,#478,#480,#481,#482,#483));
#485=FACE_OUTER_BOUND('',#484,.F.);
#487=CARTESIAN_POINT('',(-2.E-1,1.E-1,1.16E1));
#488=DIRECTION('',(-1.E0,0.E0,0.E0));
#489=DIRECTION('',(0.E0,-1.E0,0.E0));
#490=AXIS2_PLACEMENT_3D('',#487,#488,#489);
#491=PLANE('',#490);
#492=ORIENTED_EDGE('',*,*,#380,.T.);
#494=ORIENTED_EDGE('',*,*,#493,.F.);
#495=ORIENTED_EDGE('',*,*,#472,.F.);
#496=ORIENTED_EDGE('',*,*,#429,.T.);
#497=EDGE_LOOP('',(#492,#494,#495,#496));
#498=FACE_OUTER_BOUND('',#497,.F.);
#500=CARTESIAN_POINT('',(-2.E-1,-1.2E0,1.16E1));
#501=DIRECTION('',(0.E0,-1.E0,0.E0));
#502=DIRECTION('',(1.E0,0.E0,0.E0));
#503=AXIS2_PLACEMENT_3D('',#500,#501,#502);
#504=PLANE('',#503);
#505=ORIENTED_EDGE('',*,*,#378,.T.);
#507=ORIENTED_EDGE('',*,*,#506,.F.);
#508=ORIENTED_EDGE('',*,*,#474,.F.);
#509=ORIENTED_EDGE('',*,*,#493,.T.);
#510=EDGE_LOOP('',(#505,#507,#508,#509));
#511=FACE_OUTER_BOUND('',#510,.F.);
#513=CARTESIAN_POINT('',(2.E-1,-1.2E0,1.16E1));
#514=DIRECTION('',(1.E0,0.E0,0.E0));
#515=DIRECTION('',(0.E0,1.E0,0.E0));
#516=AXIS2_PLACEMENT_3D('',#513,#514,#515);
#517=PLANE('',#516);
#518=ORIENTED_EDGE('',*,*,#376,.F.);
#519=ORIENTED_EDGE('',*,*,#445,.F.);
#520=ORIENTED_EDGE('',*,*,#476,.T.);
#521=ORIENTED_EDGE('',*,*,#506,.T.);
#522=EDGE_LOOP('',(#518,#519,#520,#521));
#523=FACE_OUTER_BOUND('',#522,.F.);
#525=CARTESIAN_POINT('',(7.5E-1,1.E-1,1.16E1));
#526=DIRECTION('',(0.E0,0.E0,1.E0));
#527=DIRECTION('',(-1.E0,0.E0,0.E0));
#528=AXIS2_PLACEMENT_3D('',#525,#526,#527);
#529=CYLINDRICAL_SURFACE('',#528,5.E-1);
#530=ORIENTED_EDGE('',*,*,#372,.T.);
#531=ORIENTED_EDGE('',*,*,#456,.F.);
#532=ORIENTED_EDGE('',*,*,#479,.F.);
#533=ORIENTED_EDGE('',*,*,#441,.T.);
#534=EDGE_LOOP('',(#530,#531,#532,#533));
#535=FACE_OUTER_BOUND('',#534,.F.);
#537=FILL_AREA_STYLE_COLOUR('',#9);
#538=FILL_AREA_STYLE('',(#537));
#539=SURFACE_STYLE_FILL_AREA(#538);
#540=SURFACE_SIDE_STYLE('',(#539));
#541=SURFACE_STYLE_USAGE(.POSITIVE.,#540);
#542=PRESENTATION_STYLE_ASSIGNMENT((#541));
#543=STYLED_ITEM('',(#542),#536);
#544=CARTESIAN_POINT('',(1.15E0,0.E0,-1.5E1));
#545=DIRECTION('',(0.E0,0.E0,-1.E0));
#546=DIRECTION('',(-1.E0,0.E0,0.E0));
#547=AXIS2_PLACEMENT_3D('',#544,#545,#546);
#548=CYLINDRICAL_SURFACE('',#547,1.1E0);
#549=ORIENTED_EDGE('',*,*,#299,.F.);
#551=ORIENTED_EDGE('',*,*,#550,.T.);
#553=ORIENTED_EDGE('',*,*,#552,.T.);
#555=ORIENTED_EDGE('',*,*,#554,.F.);
#556=EDGE_LOOP('',(#549,#551,#553,#555));
#557=FACE_OUTER_BOUND('',#556,.F.);
#559=FILL_AREA_STYLE_COLOUR('',#8);
#560=FILL_AREA_STYLE('',(#559));
#561=SURFACE_STYLE_FILL_AREA(#560);
#562=SURFACE_SIDE_STYLE('',(#561));
#563=SURFACE_STYLE_USAGE(.POSITIVE.,#562);
#564=PRESENTATION_STYLE_ASSIGNMENT((#563));
#565=STYLED_ITEM('',(#564),#558);
#566=CARTESIAN_POINT('',(1.15E0,0.E0,-1.5E1));
#567=DIRECTION('',(0.E0,0.E0,-1.E0));
#568=DIRECTION('',(-1.E0,0.E0,0.E0));
#569=AXIS2_PLACEMENT_3D('',#566,#567,#568);
#570=CYLINDRICAL_SURFACE('',#569,1.1E0);
#571=ORIENTED_EDGE('',*,*,#301,.F.);
#572=ORIENTED_EDGE('',*,*,#554,.T.);
#574=ORIENTED_EDGE('',*,*,#573,.T.);
#575=ORIENTED_EDGE('',*,*,#550,.F.);
#576=EDGE_LOOP('',(#571,#572,#574,#575));
#577=FACE_OUTER_BOUND('',#576,.F.);
#579=FILL_AREA_STYLE_COLOUR('',#8);
#580=FILL_AREA_STYLE('',(#579));
#581=SURFACE_STYLE_FILL_AREA(#580);
#582=SURFACE_SIDE_STYLE('',(#581));
#583=SURFACE_STYLE_USAGE(.POSITIVE.,#582);
#584=PRESENTATION_STYLE_ASSIGNMENT((#583));
#585=STYLED_ITEM('',(#584),#578);
#586=CARTESIAN_POINT('',(0.E0,0.E0,-3.5E1));
#587=DIRECTION('',(0.E0,0.E0,-1.E0));
#588=DIRECTION('',(-1.E0,0.E0,0.E0));
#589=AXIS2_PLACEMENT_3D('',#586,#587,#588);
#590=PLANE('',#589);
#591=ORIENTED_EDGE('',*,*,#552,.F.);
#592=ORIENTED_EDGE('',*,*,#573,.F.);
#593=EDGE_LOOP('',(#591,#592));
#594=FACE_OUTER_BOUND('',#593,.F.);
#596=FILL_AREA_STYLE_COLOUR('',#8);
#597=FILL_AREA_STYLE('',(#596));
#598=SURFACE_STYLE_FILL_AREA(#597);
#599=SURFACE_SIDE_STYLE('',(#598));
#600=SURFACE_STYLE_USAGE(.POSITIVE.,#599);
#601=PRESENTATION_STYLE_ASSIGNMENT((#600));
#602=STYLED_ITEM('',(#601),#595);
#603=CARTESIAN_POINT('',(0.E0,0.E0,-3.5E1));
#604=DIRECTION('',(0.E0,0.E0,-1.E0));
#605=DIRECTION('',(-1.E0,0.E0,0.E0));
#606=AXIS2_PLACEMENT_3D('',#603,#604,#605);
#607=PLANE('',#606);
#609=ORIENTED_EDGE('',*,*,#608,.F.);
#611=ORIENTED_EDGE('',*,*,#610,.F.);
#612=EDGE_LOOP('',(#609,#611));
#613=FACE_OUTER_BOUND('',#612,.F.);
#615=FILL_AREA_STYLE_COLOUR('',#8);
#616=FILL_AREA_STYLE('',(#615));
#617=SURFACE_STYLE_FILL_AREA(#616);
#618=SURFACE_SIDE_STYLE('',(#617));
#619=SURFACE_STYLE_USAGE(.POSITIVE.,#618);
#620=PRESENTATION_STYLE_ASSIGNMENT((#619));
#621=STYLED_ITEM('',(#620),#614);
#622=CARTESIAN_POINT('',(-1.15E0,0.E0,-1.5E1));
#623=DIRECTION('',(0.E0,0.E0,-1.E0));
#624=DIRECTION('',(-1.E0,0.E0,0.E0));
#625=AXIS2_PLACEMENT_3D('',#622,#623,#624);
#626=CYLINDRICAL_SURFACE('',#625,1.1E0);
#627=ORIENTED_EDGE('',*,*,#305,.F.);
#629=ORIENTED_EDGE('',*,*,#628,.T.);
#630=ORIENTED_EDGE('',*,*,#608,.T.);
#632=ORIENTED_EDGE('',*,*,#631,.F.);
#633=EDGE_LOOP('',(#627,#629,#630,#632));
#634=FACE_OUTER_BOUND('',#633,.F.);
#636=FILL_AREA_STYLE_COLOUR('',#8);
#637=FILL_AREA_STYLE('',(#636));
#638=SURFACE_STYLE_FILL_AREA(#637);
#639=SURFACE_SIDE_STYLE('',(#638));
#640=SURFACE_STYLE_USAGE(.POSITIVE.,#639);
#641=PRESENTATION_STYLE_ASSIGNMENT((#640));
#642=STYLED_ITEM('',(#641),#635);
#643=CARTESIAN_POINT('',(-1.15E0,0.E0,-1.5E1));
#644=DIRECTION('',(0.E0,0.E0,-1.E0));
#645=DIRECTION('',(-1.E0,0.E0,0.E0));
#646=AXIS2_PLACEMENT_3D('',#643,#644,#645);
#647=CYLINDRICAL_SURFACE('',#646,1.1E0);
#648=ORIENTED_EDGE('',*,*,#307,.F.);
#649=ORIENTED_EDGE('',*,*,#631,.T.);
#650=ORIENTED_EDGE('',*,*,#610,.T.);
#651=ORIENTED_EDGE('',*,*,#628,.F.);
#652=EDGE_LOOP('',(#648,#649,#650,#651));
#653=FACE_OUTER_BOUND('',#652,.F.);
#655=FILL_AREA_STYLE_COLOUR('',#8);
#656=FILL_AREA_STYLE('',(#655));
#657=SURFACE_STYLE_FILL_AREA(#656);
#658=SURFACE_SIDE_STYLE('',(#657));
#659=SURFACE_STYLE_USAGE(.POSITIVE.,#658);
#660=PRESENTATION_STYLE_ASSIGNMENT((#659));
#661=STYLED_ITEM('',(#660),#654);
#662=CLOSED_SHELL('',(#311,#336,#349,#359,#386,#401,#421,#435,#450,#464,#486,
#499,#512,#524,#536,#558,#578,#595,#614,#635,#654));
#663=MANIFOLD_SOLID_BREP('',#662);
#666=PLANE_ANGLE_MEASURE_WITH_UNIT(PLANE_ANGLE_MEASURE(1.745329251994E-2),#665);
#667=(CONVERSION_BASED_UNIT('DEGREE',#666)NAMED_UNIT(*)PLANE_ANGLE_UNIT());
#669=UNCERTAINTY_MEASURE_WITH_UNIT(LENGTH_MEASURE(5.066795135666E-3),#664,
'distance_accuracy_value',
'Maximum model space distance between geometric entities at asserted connectivities');
#672=MECHANICAL_DESIGN_GEOMETRIC_PRESENTATION_REPRESENTATION('',(#408,#543,#565,
#585,#602,#621,#642,#661),#670);
#673=APPLICATION_CONTEXT('automotive_design');
#674=APPLICATION_PROTOCOL_DEFINITION('international standard',
'automotive_design',2001,#673);
#675=PRODUCT_DEFINITION_CONTEXT('part definition',#673,'design');
#676=PRODUCT_CONTEXT('',#673,'mechanical');
#677=PRODUCT('PR14L','PR14L','NOT SPECIFIED',(#676));
#678=PRODUCT_DEFINITION_FORMATION('2','LAST_VERSION',#677);
#686=DERIVED_UNIT_ELEMENT(#685,2.E0);
#687=DERIVED_UNIT((#686));
#688=MEASURE_REPRESENTATION_ITEM('surface area measure',AREA_MEASURE(
9.197384465675E2),#687);
#693=DERIVED_UNIT_ELEMENT(#692,3.E0);
#694=DERIVED_UNIT((#693));
#695=MEASURE_REPRESENTATION_ITEM('volume measure',VOLUME_MEASURE(
9.504776576233E2),#694);
#699=CARTESIAN_POINT('centre point',(1.661549572343E-7,-3.537026267008E-2,
-4.336351273372E0));
#704=DERIVED_UNIT_ELEMENT(#703,2.E0);
#705=DERIVED_UNIT((#704));
#706=MEASURE_REPRESENTATION_ITEM('surface area measure',AREA_MEASURE(
9.197384465675E2),#705);
#711=DERIVED_UNIT_ELEMENT(#710,3.E0);
#712=DERIVED_UNIT((#711));
#713=MEASURE_REPRESENTATION_ITEM('volume measure',VOLUME_MEASURE(
9.504776576233E2),#712);
#717=CARTESIAN_POINT('centre point',(1.661549572343E-7,-3.537026267008E-2,
-4.336351273372E0));
#722=PRODUCT_RELATED_PRODUCT_CATEGORY('part','',(#677));
#1=DRAUGHTING_PRE_DEFINED_COLOUR('green');
#2=COLOUR_RGB('',1.1E-2,1.2E-2,1.E0);
#3=COLOUR_RGB('',4.1E-1,2.61589E-1,1.12848E-1);
#4=COLOUR_RGB('',5.04854E-1,1.5455E-2,1.5455E-2);
#5=COLOUR_RGB('',6.35294E-1,6.86275E-1,7.4902E-1);
#6=COLOUR_RGB('',6.40777E-1,6.40777E-1,6.40777E-1);
#7=COLOUR_RGB('',6.69062E-1,6.69903E-1,6.55217E-1);
#8=COLOUR_RGB('',6.86275E-1,3.13725E-1,2.35294E-1);
#9=COLOUR_RGB('',8.03922E-1,5.88235E-1,1.96078E-1);
#10=COLOUR_RGB('',9.21569E-1,7.05882E-1,4.70588E-1);
#11=DRAUGHTING_PRE_DEFINED_COLOUR('red');
#12=DRAUGHTING_PRE_DEFINED_COLOUR('yellow');
#13=COLOUR_RGB('',1.E0,1.E0,5.3E-1);
#14=COLOUR_RGB('',1.E0,1.E0,9.49E-1);
#15=DRAUGHTING_PRE_DEFINED_COLOUR('white');
#20=CIRCLE('',#19,3.E0);
#29=CIRCLE('',#28,1.1E0);
#34=CIRCLE('',#33,1.1E0);
#39=CIRCLE('',#38,1.1E0);
#44=CIRCLE('',#43,1.1E0);
#53=CIRCLE('',#52,3.E0);
#62=CIRCLE('',#61,3.E0);
#75=CIRCLE('',#74,3.E0);
#84=CIRCLE('',#83,5.E-1);
#97=CIRCLE('',#96,5.E-1);
#162=CIRCLE('',#161,5.E-1);
#179=CIRCLE('',#178,5.E-1);
#200=CIRCLE('',#199,1.1E0);
#205=CIRCLE('',#204,1.1E0);
#210=CIRCLE('',#209,1.1E0);
#215=CIRCLE('',#214,1.1E0);
#293=EDGE_CURVE('',#226,#227,#20,.T.);
#295=EDGE_CURVE('',#227,#226,#24,.T.);
#299=EDGE_CURVE('',#242,#243,#29,.T.);
#301=EDGE_CURVE('',#243,#242,#34,.T.);
#305=EDGE_CURVE('',#246,#247,#39,.T.);
#307=EDGE_CURVE('',#247,#246,#44,.T.);
#311=ADVANCED_FACE('',(#298,#304,#310),#292,.F.);
#318=EDGE_CURVE('',#226,#230,#48,.T.);
#320=EDGE_CURVE('',#230,#231,#75,.T.);
#322=EDGE_CURVE('',#227,#231,#70,.T.);
#326=EDGE_CURVE('',#250,#251,#53,.T.);
#328=EDGE_CURVE('',#254,#251,#57,.T.);
#330=EDGE_CURVE('',#254,#255,#62,.T.);
#332=EDGE_CURVE('',#255,#250,#66,.T.);
#336=ADVANCED_FACE('',(#325,#335),#316,.T.);
#344=EDGE_CURVE('',#231,#230,#79,.T.);
#349=ADVANCED_FACE('',(#348),#341,.T.);
#359=ADVANCED_FACE('',(#358),#354,.T.);
#365=EDGE_CURVE('',#258,#259,#84,.T.);
#367=EDGE_CURVE('',#251,#258,#88,.T.);
#370=EDGE_CURVE('',#263,#250,#92,.T.);
#372=EDGE_CURVE('',#262,#263,#97,.T.);
#374=EDGE_CURVE('',#266,#262,#101,.T.);
#376=EDGE_CURVE('',#266,#267,#105,.T.);
#378=EDGE_CURVE('',#271,#267,#109,.T.);
#380=EDGE_CURVE('',#270,#271,#113,.T.);
#382=EDGE_CURVE('',#259,#270,#117,.T.);
#386=ADVANCED_FACE('',(#385),#364,.F.);
#393=EDGE_CURVE('',#275,#259,#129,.T.);
#395=EDGE_CURVE('',#274,#275,#162,.T.);
#397=EDGE_CURVE('',#274,#258,#121,.T.);
#401=ADVANCED_FACE('',(#400),#391,.T.);
#415=EDGE_CURVE('',#254,#274,#125,.T.);
#421=ADVANCED_FACE('',(#420),#413,.F.);
#429=EDGE_CURVE('',#286,#270,#133,.T.);
#431=EDGE_CURVE('',#275,#286,#137,.T.);
#435=ADVANCED_FACE('',(#434),#426,.F.);
#441=EDGE_CURVE('',#278,#262,#141,.T.);
#443=EDGE_CURVE('',#282,#278,#145,.T.);
#445=EDGE_CURVE('',#282,#266,#149,.T.);
#450=ADVANCED_FACE('',(#449),#440,.F.);
#456=EDGE_CURVE('',#279,#263,#153,.T.);
#460=EDGE_CURVE('',#279,#255,#157,.T.);
#464=ADVANCED_FACE('',(#463),#455,.F.);
#472=EDGE_CURVE('',#286,#287,#166,.T.);
#474=EDGE_CURVE('',#287,#283,#170,.T.);
#476=EDGE_CURVE('',#282,#283,#174,.T.);
#479=EDGE_CURVE('',#278,#279,#179,.T.);
#486=ADVANCED_FACE('',(#485),#469,.F.);
#493=EDGE_CURVE('',#287,#271,#183,.T.);
#499=ADVANCED_FACE('',(#498),#491,.T.);
#506=EDGE_CURVE('',#283,#267,#187,.T.);
#512=ADVANCED_FACE('',(#511),#504,.T.);
#524=ADVANCED_FACE('',(#523),#517,.T.);
#536=ADVANCED_FACE('',(#535),#529,.T.);
#550=EDGE_CURVE('',#242,#234,#191,.T.);
#552=EDGE_CURVE('',#234,#235,#200,.T.);
#554=EDGE_CURVE('',#243,#235,#195,.T.);
#558=ADVANCED_FACE('',(#557),#548,.T.);
#573=EDGE_CURVE('',#235,#234,#205,.T.);
#578=ADVANCED_FACE('',(#577),#570,.T.);
#595=ADVANCED_FACE('',(#594),#590,.T.);
#608=EDGE_CURVE('',#238,#239,#210,.T.);
#610=EDGE_CURVE('',#239,#238,#215,.T.);
#614=ADVANCED_FACE('',(#613),#607,.T.);
#628=EDGE_CURVE('',#246,#238,#219,.T.);
#631=EDGE_CURVE('',#247,#239,#223,.T.);
#635=ADVANCED_FACE('',(#634),#626,.T.);
#654=ADVANCED_FACE('',(#653),#647,.T.);
#664=(LENGTH_UNIT()NAMED_UNIT(*)SI_UNIT(.MILLI.,.METRE.));
#665=(NAMED_UNIT(*)PLANE_ANGLE_UNIT()SI_UNIT($,.RADIAN.));
#668=(NAMED_UNIT(*)SI_UNIT($,.STERADIAN.)SOLID_ANGLE_UNIT());
#670=(GEOMETRIC_REPRESENTATION_CONTEXT(3)GLOBAL_UNCERTAINTY_ASSIGNED_CONTEXT((
#669))GLOBAL_UNIT_ASSIGNED_CONTEXT((#664,#667,#668))REPRESENTATION_CONTEXT
('ID1','3'));
#671=ADVANCED_BREP_SHAPE_REPRESENTATION('',(#663),#670);
#679=PRODUCT_DEFINITION('part definition','',#678,#675);
#680=PRODUCT_DEFINITION_SHAPE('','SHAPE FOR PR14L.',#679);
#681=SHAPE_ASPECT('','solid data associated with PR14L',#680,.F.);
#682=PROPERTY_DEFINITION('',
'shape for solid data with which properties are associated',#681);
#683=SHAPE_REPRESENTATION('',(#663),#670);
#684=SHAPE_DEFINITION_REPRESENTATION(#682,#683);
#685=(LENGTH_UNIT()NAMED_UNIT(*)SI_UNIT(.MILLI.,.METRE.));
#689=PROPERTY_DEFINITION('geometric validation property','area of PR14L',#681);
#690=REPRESENTATION('surface area',(#688),#670);
#691=PROPERTY_DEFINITION_REPRESENTATION(#689,#690);
#692=(LENGTH_UNIT()NAMED_UNIT(*)SI_UNIT(.MILLI.,.METRE.));
#696=PROPERTY_DEFINITION('geometric validation property','volume of PR14L',
#681);
#697=REPRESENTATION('volume',(#695),#670);
#698=PROPERTY_DEFINITION_REPRESENTATION(#696,#697);
#700=PROPERTY_DEFINITION('geometric validation property','centroid of PR14L',
#681);
#701=REPRESENTATION('centroid',(#699),#670);
#702=PROPERTY_DEFINITION_REPRESENTATION(#700,#701);
#703=(LENGTH_UNIT()NAMED_UNIT(*)SI_UNIT(.MILLI.,.METRE.));
#707=PROPERTY_DEFINITION('geometric validation property','area of PR14L',#680);
#708=REPRESENTATION('surface area',(#706),#670);
#709=PROPERTY_DEFINITION_REPRESENTATION(#707,#708);
#710=(LENGTH_UNIT()NAMED_UNIT(*)SI_UNIT(.MILLI.,.METRE.));
#714=PROPERTY_DEFINITION('geometric validation property','volume of PR14L',
#680);
#715=REPRESENTATION('volume',(#713),#670);
#716=PROPERTY_DEFINITION_REPRESENTATION(#714,#715);
#718=PROPERTY_DEFINITION('geometric validation property','centroid of PR14L',
#680);
#719=REPRESENTATION('centroid',(#717),#670);
#720=PROPERTY_DEFINITION_REPRESENTATION(#718,#719);
#721=SHAPE_DEFINITION_REPRESENTATION(#680,#671);
ENDSEC;
END-ISO-10303-21;
