ISO-10303-21;
HEADER;
FILE_DESCRIPTION((''),'2;1');
FILE_NAME('PT-4H','2021-10-06T09:31:12',('Administrator'),(''),
'CREO PARAMETRIC BY PTC INC, 2018400','CREO PARAMETRIC BY PTC INC, 2018400','');
FILE_SCHEMA(('CONFIG_CONTROL_DESIGN'));
ENDSEC;
DATA;
#2=CARTESIAN_POINT('',(0.E0,-4.9E0,0.E0));
#3=DIRECTION('',(0.E0,-1.E0,0.E0));
#4=DIRECTION('',(1.E0,0.E0,0.E0));
#5=AXIS2_PLACEMENT_3D('',#2,#3,#4);
#7=CARTESIAN_POINT('',(0.E0,-4.9E0,0.E0));
#8=DIRECTION('',(0.E0,-1.E0,0.E0));
#9=DIRECTION('',(-1.E0,0.E0,0.E0));
#10=AXIS2_PLACEMENT_3D('',#7,#8,#9);
#12=CARTESIAN_POINT('',(0.E0,-4.7E0,0.E0));
#13=DIRECTION('',(0.E0,1.E0,0.E0));
#14=DIRECTION('',(-1.E0,0.E0,0.E0));
#15=AXIS2_PLACEMENT_3D('',#12,#13,#14);
#17=CARTESIAN_POINT('',(0.E0,-4.9E0,0.E0));
#18=DIRECTION('',(0.E0,1.E0,0.E0));
#19=DIRECTION('',(-1.E0,0.E0,0.E0));
#20=AXIS2_PLACEMENT_3D('',#17,#18,#19);
#22=CARTESIAN_POINT('',(0.E0,2.541666666667E-1,0.E0));
#23=DIRECTION('',(0.E0,0.E0,1.E0));
#24=DIRECTION('',(-3.330689928628E-1,-9.429024583664E-1,0.E0));
#25=AXIS2_PLACEMENT_3D('',#22,#23,#24);
#27=CARTESIAN_POINT('',(0.E0,2.541666666667E-1,0.E0));
#28=DIRECTION('',(0.E0,0.E0,-1.E0));
#29=DIRECTION('',(3.330689928628E-1,-9.429024583664E-1,0.E0));
#30=AXIS2_PLACEMENT_3D('',#27,#28,#29);
#32=CARTESIAN_POINT('',(0.E0,-4.7E0,0.E0));
#33=DIRECTION('',(0.E0,1.E0,0.E0));
#34=DIRECTION('',(1.E0,0.E0,0.E0));
#35=AXIS2_PLACEMENT_3D('',#32,#33,#34);
#37=DIRECTION('',(0.E0,1.E0,0.E0));
#38=VECTOR('',#37,2.E-1);
#39=CARTESIAN_POINT('',(1.75E0,-4.9E0,0.E0));
#40=LINE('',#39,#38);
#41=CARTESIAN_POINT('',(0.E0,-4.9E0,0.E0));
#42=DIRECTION('',(0.E0,-1.E0,0.E0));
#43=DIRECTION('',(-1.E0,0.E0,0.E0));
#44=AXIS2_PLACEMENT_3D('',#41,#42,#43);
#46=DIRECTION('',(0.E0,1.E0,0.E0));
#47=VECTOR('',#46,2.E-1);
#48=CARTESIAN_POINT('',(-1.75E0,-4.9E0,0.E0));
#49=LINE('',#48,#47);
#50=DIRECTION('',(3.713906763541E-1,9.284766908853E-1,2.200956607929E-10));
#51=VECTOR('',#50,5.385164807193E-1);
#52=CARTESIAN_POINT('',(1.799999999987E0,-4.900000000033E0,
-7.111518775587E-10));
#53=LINE('',#52,#51);
#54=DIRECTION('',(-3.713906763541E-1,9.284766908853E-1,-2.200961328436E-10));
#55=VECTOR('',#54,5.385164807193E-1);
#56=CARTESIAN_POINT('',(-1.799999999987E0,-4.900000000033E0,
7.111520705334E-10));
#57=LINE('',#56,#55);
#58=CARTESIAN_POINT('',(0.E0,4.7E0,0.E0));
#59=DIRECTION('',(0.E0,-1.E0,0.E0));
#60=DIRECTION('',(-1.E0,0.E0,0.E0));
#61=AXIS2_PLACEMENT_3D('',#58,#59,#60);
#63=DIRECTION('',(-5.848557291673E-13,-1.E0,7.476330783548E-11));
#64=VECTOR('',#63,9.100000000043E0);
#65=CARTESIAN_POINT('',(-1.999999999984E0,4.700000000016E0,
-8.771942565161E-11));
#66=LINE('',#65,#64);
#67=CARTESIAN_POINT('',(0.E0,-4.4E0,0.E0));
#68=DIRECTION('',(0.E0,-1.E0,0.E0));
#69=DIRECTION('',(-1.E0,0.E0,0.E0));
#70=AXIS2_PLACEMENT_3D('',#67,#68,#69);
#72=DIRECTION('',(5.846117241070E-13,-1.E0,-7.476333216364E-11));
#73=VECTOR('',#72,9.100000000043E0);
#74=CARTESIAN_POINT('',(1.999999999984E0,4.700000000016E0,8.771958580547E-11));
#75=LINE('',#74,#73);
#76=DIRECTION('',(7.071067811865E-1,7.071067811865E-1,-6.202820256133E-11));
#77=VECTOR('',#76,2.828427124792E-1);
#78=CARTESIAN_POINT('',(-1.999999999984E0,4.700000000016E0,
-8.771942565161E-11));
#79=LINE('',#78,#77);
#80=DIRECTION('',(-7.071067811865E-1,7.071067811865E-1,6.202596346192E-11));
#81=VECTOR('',#80,2.828427124792E-1);
#82=CARTESIAN_POINT('',(1.999999999984E0,4.700000000016E0,8.771958580547E-11));
#83=LINE('',#82,#81);
#84=CARTESIAN_POINT('',(0.E0,4.7E0,0.E0));
#85=DIRECTION('',(0.E0,-1.E0,0.E0));
#86=DIRECTION('',(1.E0,0.E0,0.E0));
#87=AXIS2_PLACEMENT_3D('',#84,#85,#86);
#89=CARTESIAN_POINT('',(0.E0,-4.4E0,0.E0));
#90=DIRECTION('',(0.E0,-1.E0,0.E0));
#91=DIRECTION('',(1.E0,0.E0,0.E0));
#92=AXIS2_PLACEMENT_3D('',#89,#90,#91);
#94=CARTESIAN_POINT('',(0.E0,4.9E0,0.E0));
#95=DIRECTION('',(0.E0,-1.E0,0.E0));
#96=DIRECTION('',(1.E0,0.E0,0.E0));
#97=AXIS2_PLACEMENT_3D('',#94,#95,#96);
#99=CARTESIAN_POINT('',(0.E0,4.9E0,0.E0));
#100=DIRECTION('',(0.E0,-1.E0,0.E0));
#101=DIRECTION('',(-1.E0,0.E0,0.E0));
#102=AXIS2_PLACEMENT_3D('',#99,#100,#101);
#104=CARTESIAN_POINT('',(0.E0,4.9E0,0.E0));
#105=DIRECTION('',(0.E0,-1.E0,0.E0));
#106=DIRECTION('',(1.E0,0.E0,0.E0));
#107=AXIS2_PLACEMENT_3D('',#104,#105,#106);
#109=CARTESIAN_POINT('',(0.E0,4.9E0,0.E0));
#110=DIRECTION('',(0.E0,-1.E0,0.E0));
#111=DIRECTION('',(-1.E0,0.E0,0.E0));
#112=AXIS2_PLACEMENT_3D('',#109,#110,#111);
#114=DIRECTION('',(-7.071067811865E-1,-7.071067811865E-1,3.465098638013E-10));
#115=VECTOR('',#114,4.242640685490E-1);
#116=CARTESIAN_POINT('',(1.349999999724E0,4.899999999724E0,
-3.528281202136E-10));
#117=LINE('',#116,#115);
#118=DIRECTION('',(7.071067811865E-1,-7.071067811865E-1,-3.465095349128E-10));
#119=VECTOR('',#118,4.242640685490E-1);
#120=CARTESIAN_POINT('',(-1.349999999724E0,4.899999999724E0,
3.528280651045E-10));
#121=LINE('',#120,#119);
#122=CARTESIAN_POINT('',(0.E0,4.6E0,0.E0));
#123=DIRECTION('',(0.E0,-1.E0,0.E0));
#124=DIRECTION('',(-1.E0,0.E0,0.E0));
#125=AXIS2_PLACEMENT_3D('',#122,#123,#124);
#127=DIRECTION('',(-2.094480433290E-11,1.E0,-2.672939052225E-11));
#128=VECTOR('',#127,7.699999999839E0);
#129=CARTESIAN_POINT('',(1.05E0,-3.1E0,0.E0));
#130=LINE('',#129,#128);
#131=CARTESIAN_POINT('',(0.E0,-3.1E0,0.E0));
#132=DIRECTION('',(0.E0,1.E0,0.E0));
#133=DIRECTION('',(1.E0,0.E0,0.E0));
#134=AXIS2_PLACEMENT_3D('',#131,#132,#133);
#136=DIRECTION('',(2.094512153948E-11,1.E0,2.672940148672E-11));
#137=VECTOR('',#136,7.699999999839E0);
#138=CARTESIAN_POINT('',(-1.05E0,-3.1E0,0.E0));
#139=LINE('',#138,#137);
#140=CARTESIAN_POINT('',(0.E0,4.6E0,0.E0));
#141=DIRECTION('',(0.E0,-1.E0,0.E0));
#142=DIRECTION('',(1.E0,0.E0,0.E0));
#143=AXIS2_PLACEMENT_3D('',#140,#141,#142);
#145=CARTESIAN_POINT('',(0.E0,-3.1E0,0.E0));
#146=DIRECTION('',(0.E0,1.E0,0.E0));
#147=DIRECTION('',(-1.E0,0.E0,0.E0));
#148=AXIS2_PLACEMENT_3D('',#145,#146,#147);
#150=CARTESIAN_POINT('',(-1.75E0,-4.9E0,0.E0));
#151=CARTESIAN_POINT('',(1.75E0,-4.9E0,0.E0));
#152=VERTEX_POINT('',#150);
#153=VERTEX_POINT('',#151);
#154=CARTESIAN_POINT('',(-1.75E0,-4.7E0,0.E0));
#155=CARTESIAN_POINT('',(1.75E0,-4.7E0,0.E0));
#156=VERTEX_POINT('',#154);
#157=VERTEX_POINT('',#155);
#158=CARTESIAN_POINT('',(0.E0,-5.E0,0.E0));
#159=VERTEX_POINT('',#158);
#160=CARTESIAN_POINT('',(1.35E0,4.9E0,0.E0));
#161=CARTESIAN_POINT('',(-1.35E0,4.9E0,0.E0));
#162=VERTEX_POINT('',#160);
#163=VERTEX_POINT('',#161);
#164=CARTESIAN_POINT('',(1.05E0,4.6E0,0.E0));
#165=CARTESIAN_POINT('',(-1.05E0,4.6E0,0.E0));
#166=VERTEX_POINT('',#164);
#167=VERTEX_POINT('',#165);
#168=CARTESIAN_POINT('',(-1.05E0,-3.1E0,0.E0));
#169=CARTESIAN_POINT('',(1.05E0,-3.1E0,0.E0));
#170=VERTEX_POINT('',#168);
#171=VERTEX_POINT('',#169);
#172=CARTESIAN_POINT('',(1.8E0,-4.9E0,0.E0));
#173=CARTESIAN_POINT('',(-1.8E0,-4.9E0,0.E0));
#174=VERTEX_POINT('',#172);
#175=VERTEX_POINT('',#173);
#176=CARTESIAN_POINT('',(2.E0,-4.4E0,0.E0));
#177=CARTESIAN_POINT('',(-2.E0,-4.4E0,0.E0));
#178=VERTEX_POINT('',#176);
#179=VERTEX_POINT('',#177);
#180=CARTESIAN_POINT('',(2.E0,4.7E0,0.E0));
#181=CARTESIAN_POINT('',(-2.E0,4.7E0,0.E0));
#182=VERTEX_POINT('',#180);
#183=VERTEX_POINT('',#181);
#184=CARTESIAN_POINT('',(1.8E0,4.9E0,0.E0));
#185=CARTESIAN_POINT('',(-1.8E0,4.9E0,0.E0));
#186=VERTEX_POINT('',#184);
#187=VERTEX_POINT('',#185);
#188=CARTESIAN_POINT('',(0.E0,-4.9E0,0.E0));
#189=DIRECTION('',(0.E0,1.E0,0.E0));
#190=DIRECTION('',(1.E0,0.E0,0.E0));
#191=AXIS2_PLACEMENT_3D('',#188,#189,#190);
#192=PLANE('',#191);
#194=ORIENTED_EDGE('',*,*,#193,.F.);
#196=ORIENTED_EDGE('',*,*,#195,.F.);
#197=EDGE_LOOP('',(#194,#196));
#198=FACE_OUTER_BOUND('',#197,.F.);
#200=ORIENTED_EDGE('',*,*,#199,.F.);
#202=ORIENTED_EDGE('',*,*,#201,.T.);
#203=EDGE_LOOP('',(#200,#202));
#204=FACE_BOUND('',#203,.F.);
#205=ADVANCED_FACE('',(#198,#204),#192,.F.);
#206=CARTESIAN_POINT('',(0.E0,-5.39E0,0.E0));
#207=DIRECTION('',(0.E0,1.E0,0.E0));
#208=DIRECTION('',(1.E0,0.E0,0.E0));
#209=AXIS2_PLACEMENT_3D('',#206,#207,#208);
#210=CYLINDRICAL_SURFACE('',#209,1.75E0);
#212=ORIENTED_EDGE('',*,*,#211,.F.);
#214=ORIENTED_EDGE('',*,*,#213,.F.);
#215=ORIENTED_EDGE('',*,*,#199,.T.);
#217=ORIENTED_EDGE('',*,*,#216,.T.);
#218=EDGE_LOOP('',(#212,#214,#215,#217));
#219=FACE_OUTER_BOUND('',#218,.F.);
#220=ADVANCED_FACE('',(#219),#210,.F.);
#221=CARTESIAN_POINT('',(0.E0,2.541666666667E-1,0.E0));
#222=DIRECTION('',(0.E0,1.E0,0.E0));
#223=DIRECTION('',(1.E0,0.E0,0.E0));
#224=AXIS2_PLACEMENT_3D('',#221,#222,#223);
#225=SPHERICAL_SURFACE('',#224,5.254166666667E0);
#226=ORIENTED_EDGE('',*,*,#211,.T.);
#228=ORIENTED_EDGE('',*,*,#227,.T.);
#230=ORIENTED_EDGE('',*,*,#229,.F.);
#231=EDGE_LOOP('',(#226,#228,#230));
#232=FACE_OUTER_BOUND('',#231,.F.);
#233=ADVANCED_FACE('',(#232),#225,.T.);
#234=CARTESIAN_POINT('',(0.E0,2.541666666667E-1,0.E0));
#235=DIRECTION('',(0.E0,1.E0,0.E0));
#236=DIRECTION('',(1.E0,0.E0,0.E0));
#237=AXIS2_PLACEMENT_3D('',#234,#235,#236);
#238=SPHERICAL_SURFACE('',#237,5.254166666667E0);
#240=ORIENTED_EDGE('',*,*,#239,.T.);
#241=ORIENTED_EDGE('',*,*,#229,.T.);
#242=ORIENTED_EDGE('',*,*,#227,.F.);
#243=EDGE_LOOP('',(#240,#241,#242));
#244=FACE_OUTER_BOUND('',#243,.F.);
#245=ADVANCED_FACE('',(#244),#238,.T.);
#246=CARTESIAN_POINT('',(0.E0,-5.39E0,0.E0));
#247=DIRECTION('',(0.E0,1.E0,0.E0));
#248=DIRECTION('',(1.E0,0.E0,0.E0));
#249=AXIS2_PLACEMENT_3D('',#246,#247,#248);
#250=CYLINDRICAL_SURFACE('',#249,1.75E0);
#251=ORIENTED_EDGE('',*,*,#239,.F.);
#252=ORIENTED_EDGE('',*,*,#216,.F.);
#253=ORIENTED_EDGE('',*,*,#201,.F.);
#254=ORIENTED_EDGE('',*,*,#213,.T.);
#255=EDGE_LOOP('',(#251,#252,#253,#254));
#256=FACE_OUTER_BOUND('',#255,.F.);
#257=ADVANCED_FACE('',(#256),#250,.F.);
#258=CARTESIAN_POINT('',(0.E0,-4.650000000032E0,0.E0));
#259=DIRECTION('',(0.E0,1.E0,0.E0));
#260=DIRECTION('',(0.E0,0.E0,-1.E0));
#261=AXIS2_PLACEMENT_3D('',#258,#259,#260);
#262=CONICAL_SURFACE('',#261,1.899999999987E0,2.180140948635E1);
#263=ORIENTED_EDGE('',*,*,#193,.T.);
#265=ORIENTED_EDGE('',*,*,#264,.T.);
#267=ORIENTED_EDGE('',*,*,#266,.F.);
#269=ORIENTED_EDGE('',*,*,#268,.F.);
#270=EDGE_LOOP('',(#263,#265,#267,#269));
#271=FACE_OUTER_BOUND('',#270,.F.);
#272=ADVANCED_FACE('',(#271),#262,.T.);
#273=CARTESIAN_POINT('',(0.E0,-4.650000000032E0,0.E0));
#274=DIRECTION('',(0.E0,1.E0,0.E0));
#275=DIRECTION('',(0.E0,0.E0,-1.E0));
#276=AXIS2_PLACEMENT_3D('',#273,#274,#275);
#277=CONICAL_SURFACE('',#276,1.899999999987E0,2.180140948635E1);
#278=ORIENTED_EDGE('',*,*,#195,.T.);
#279=ORIENTED_EDGE('',*,*,#268,.T.);
#281=ORIENTED_EDGE('',*,*,#280,.F.);
#282=ORIENTED_EDGE('',*,*,#264,.F.);
#283=EDGE_LOOP('',(#278,#279,#281,#282));
#284=FACE_OUTER_BOUND('',#283,.F.);
#285=ADVANCED_FACE('',(#284),#277,.T.);
#286=CARTESIAN_POINT('',(0.E0,-5.39E0,0.E0));
#287=DIRECTION('',(0.E0,1.E0,0.E0));
#288=DIRECTION('',(1.E0,0.E0,0.E0));
#289=AXIS2_PLACEMENT_3D('',#286,#287,#288);
#290=CYLINDRICAL_SURFACE('',#289,2.E0);
#292=ORIENTED_EDGE('',*,*,#291,.F.);
#294=ORIENTED_EDGE('',*,*,#293,.T.);
#295=ORIENTED_EDGE('',*,*,#280,.T.);
#297=ORIENTED_EDGE('',*,*,#296,.F.);
#298=EDGE_LOOP('',(#292,#294,#295,#297));
#299=FACE_OUTER_BOUND('',#298,.F.);
#300=ADVANCED_FACE('',(#299),#290,.T.);
#301=CARTESIAN_POINT('',(0.E0,4.800000000016E0,0.E0));
#302=DIRECTION('',(0.E0,-1.E0,0.E0));
#303=DIRECTION('',(0.E0,0.E0,-1.E0));
#304=AXIS2_PLACEMENT_3D('',#301,#302,#303);
#305=CONICAL_SURFACE('',#304,1.899999999984E0,4.5E1);
#306=ORIENTED_EDGE('',*,*,#291,.T.);
#308=ORIENTED_EDGE('',*,*,#307,.T.);
#310=ORIENTED_EDGE('',*,*,#309,.F.);
#312=ORIENTED_EDGE('',*,*,#311,.F.);
#313=EDGE_LOOP('',(#306,#308,#310,#312));
#314=FACE_OUTER_BOUND('',#313,.F.);
#315=ADVANCED_FACE('',(#314),#305,.T.);
#316=CARTESIAN_POINT('',(0.E0,4.800000000016E0,0.E0));
#317=DIRECTION('',(0.E0,-1.E0,0.E0));
#318=DIRECTION('',(0.E0,0.E0,-1.E0));
#319=AXIS2_PLACEMENT_3D('',#316,#317,#318);
#320=CONICAL_SURFACE('',#319,1.899999999984E0,4.5E1);
#322=ORIENTED_EDGE('',*,*,#321,.T.);
#323=ORIENTED_EDGE('',*,*,#311,.T.);
#325=ORIENTED_EDGE('',*,*,#324,.F.);
#326=ORIENTED_EDGE('',*,*,#307,.F.);
#327=EDGE_LOOP('',(#322,#323,#325,#326));
#328=FACE_OUTER_BOUND('',#327,.F.);
#329=ADVANCED_FACE('',(#328),#320,.T.);
#330=CARTESIAN_POINT('',(0.E0,-5.39E0,0.E0));
#331=DIRECTION('',(0.E0,1.E0,0.E0));
#332=DIRECTION('',(1.E0,0.E0,0.E0));
#333=AXIS2_PLACEMENT_3D('',#330,#331,#332);
#334=CYLINDRICAL_SURFACE('',#333,2.E0);
#335=ORIENTED_EDGE('',*,*,#321,.F.);
#336=ORIENTED_EDGE('',*,*,#296,.T.);
#337=ORIENTED_EDGE('',*,*,#266,.T.);
#338=ORIENTED_EDGE('',*,*,#293,.F.);
#339=EDGE_LOOP('',(#335,#336,#337,#338));
#340=FACE_OUTER_BOUND('',#339,.F.);
#341=ADVANCED_FACE('',(#340),#334,.T.);
#342=CARTESIAN_POINT('',(0.E0,4.9E0,0.E0));
#343=DIRECTION('',(0.E0,1.E0,0.E0));
#344=DIRECTION('',(1.E0,0.E0,0.E0));
#345=AXIS2_PLACEMENT_3D('',#342,#343,#344);
#346=PLANE('',#345);
#347=ORIENTED_EDGE('',*,*,#324,.T.);
#348=ORIENTED_EDGE('',*,*,#309,.T.);
#349=EDGE_LOOP('',(#347,#348));
#350=FACE_OUTER_BOUND('',#349,.F.);
#352=ORIENTED_EDGE('',*,*,#351,.F.);
#354=ORIENTED_EDGE('',*,*,#353,.F.);
#355=EDGE_LOOP('',(#352,#354));
#356=FACE_BOUND('',#355,.F.);
#357=ADVANCED_FACE('',(#350,#356),#346,.T.);
#358=CARTESIAN_POINT('',(0.E0,4.749999999798E0,0.E0));
#359=DIRECTION('',(0.E0,1.E0,0.E0));
#360=DIRECTION('',(0.E0,0.E0,-1.E0));
#361=AXIS2_PLACEMENT_3D('',#358,#359,#360);
#362=CONICAL_SURFACE('',#361,1.199999999798E0,4.5E1);
#363=ORIENTED_EDGE('',*,*,#351,.T.);
#365=ORIENTED_EDGE('',*,*,#364,.T.);
#367=ORIENTED_EDGE('',*,*,#366,.F.);
#369=ORIENTED_EDGE('',*,*,#368,.F.);
#370=EDGE_LOOP('',(#363,#365,#367,#369));
#371=FACE_OUTER_BOUND('',#370,.F.);
#372=ADVANCED_FACE('',(#371),#362,.F.);
#373=CARTESIAN_POINT('',(0.E0,4.749999999798E0,0.E0));
#374=DIRECTION('',(0.E0,1.E0,0.E0));
#375=DIRECTION('',(0.E0,0.E0,-1.E0));
#376=AXIS2_PLACEMENT_3D('',#373,#374,#375);
#377=CONICAL_SURFACE('',#376,1.199999999798E0,4.5E1);
#378=ORIENTED_EDGE('',*,*,#353,.T.);
#379=ORIENTED_EDGE('',*,*,#368,.T.);
#381=ORIENTED_EDGE('',*,*,#380,.F.);
#382=ORIENTED_EDGE('',*,*,#364,.F.);
#383=EDGE_LOOP('',(#378,#379,#381,#382));
#384=FACE_OUTER_BOUND('',#383,.F.);
#385=ADVANCED_FACE('',(#384),#377,.F.);
#386=CARTESIAN_POINT('',(0.E0,-5.39E0,0.E0));
#387=DIRECTION('',(0.E0,1.E0,0.E0));
#388=DIRECTION('',(1.E0,0.E0,0.E0));
#389=AXIS2_PLACEMENT_3D('',#386,#387,#388);
#390=CYLINDRICAL_SURFACE('',#389,1.05E0);
#391=ORIENTED_EDGE('',*,*,#380,.T.);
#393=ORIENTED_EDGE('',*,*,#392,.F.);
#395=ORIENTED_EDGE('',*,*,#394,.T.);
#397=ORIENTED_EDGE('',*,*,#396,.T.);
#398=EDGE_LOOP('',(#391,#393,#395,#397));
#399=FACE_OUTER_BOUND('',#398,.F.);
#400=ADVANCED_FACE('',(#399),#390,.F.);
#401=CARTESIAN_POINT('',(0.E0,-5.39E0,0.E0));
#402=DIRECTION('',(0.E0,1.E0,0.E0));
#403=DIRECTION('',(1.E0,0.E0,0.E0));
#404=AXIS2_PLACEMENT_3D('',#401,#402,#403);
#405=CYLINDRICAL_SURFACE('',#404,1.05E0);
#406=ORIENTED_EDGE('',*,*,#366,.T.);
#407=ORIENTED_EDGE('',*,*,#396,.F.);
#409=ORIENTED_EDGE('',*,*,#408,.T.);
#410=ORIENTED_EDGE('',*,*,#392,.T.);
#411=EDGE_LOOP('',(#406,#407,#409,#410));
#412=FACE_OUTER_BOUND('',#411,.F.);
#413=ADVANCED_FACE('',(#412),#405,.F.);
#414=CARTESIAN_POINT('',(0.E0,-3.1E0,0.E0));
#415=DIRECTION('',(0.E0,1.E0,0.E0));
#416=DIRECTION('',(1.E0,0.E0,0.E0));
#417=AXIS2_PLACEMENT_3D('',#414,#415,#416);
#418=PLANE('',#417);
#419=ORIENTED_EDGE('',*,*,#408,.F.);
#420=ORIENTED_EDGE('',*,*,#394,.F.);
#421=EDGE_LOOP('',(#419,#420));
#422=FACE_OUTER_BOUND('',#421,.F.);
#423=ADVANCED_FACE('',(#422),#418,.T.);
#424=CLOSED_SHELL('',(#205,#220,#233,#245,#257,#272,#285,#300,#315,#329,#341,
#357,#372,#385,#400,#413,#423));
#425=CARTESIAN_POINT('',(0.E0,4.8E0,0.E0));
#426=DIRECTION('',(0.E0,-1.E0,0.E0));
#427=DIRECTION('',(-1.E0,0.E0,0.E0));
#428=AXIS2_PLACEMENT_3D('',#425,#426,#427);
#430=CARTESIAN_POINT('',(0.E0,4.8E0,0.E0));
#431=DIRECTION('',(0.E0,-1.E0,0.E0));
#432=DIRECTION('',(1.E0,0.E0,0.E0));
#433=AXIS2_PLACEMENT_3D('',#430,#431,#432);
#435=DIRECTION('',(0.E0,-1.E0,0.E0));
#436=VECTOR('',#435,7.9E0);
#437=CARTESIAN_POINT('',(-1.25E0,4.8E0,0.E0));
#438=LINE('',#437,#436);
#439=DIRECTION('',(0.E0,-1.E0,0.E0));
#440=VECTOR('',#439,7.9E0);
#441=CARTESIAN_POINT('',(1.25E0,4.8E0,0.E0));
#442=LINE('',#441,#440);
#443=CARTESIAN_POINT('',(0.E0,-3.1E0,0.E0));
#444=DIRECTION('',(0.E0,-1.E0,0.E0));
#445=DIRECTION('',(1.E0,0.E0,0.E0));
#446=AXIS2_PLACEMENT_3D('',#443,#444,#445);
#448=CARTESIAN_POINT('',(0.E0,-3.1E0,0.E0));
#449=DIRECTION('',(0.E0,1.E0,0.E0));
#450=DIRECTION('',(1.E0,0.E0,0.E0));
#451=AXIS2_PLACEMENT_3D('',#448,#449,#450);
#453=CARTESIAN_POINT('',(1.25E0,-3.1E0,0.E0));
#454=CARTESIAN_POINT('',(-1.25E0,-3.1E0,0.E0));
#455=VERTEX_POINT('',#453);
#456=VERTEX_POINT('',#454);
#457=CARTESIAN_POINT('',(1.25E0,4.8E0,0.E0));
#458=CARTESIAN_POINT('',(-1.25E0,4.8E0,0.E0));
#459=VERTEX_POINT('',#457);
#460=VERTEX_POINT('',#458);
#461=CARTESIAN_POINT('',(0.E0,-3.5E0,0.E0));
#462=DIRECTION('',(0.E0,1.E0,0.E0));
#463=DIRECTION('',(1.E0,0.E0,0.E0));
#464=AXIS2_PLACEMENT_3D('',#461,#462,#463);
#465=CYLINDRICAL_SURFACE('',#464,1.25E0);
#467=ORIENTED_EDGE('',*,*,#466,.T.);
#469=ORIENTED_EDGE('',*,*,#468,.T.);
#471=ORIENTED_EDGE('',*,*,#470,.T.);
#473=ORIENTED_EDGE('',*,*,#472,.F.);
#474=EDGE_LOOP('',(#467,#469,#471,#473));
#475=FACE_OUTER_BOUND('',#474,.F.);
#476=ADVANCED_FACE('',(#475),#465,.F.);
#477=CARTESIAN_POINT('',(0.E0,-3.5E0,0.E0));
#478=DIRECTION('',(0.E0,1.E0,0.E0));
#479=DIRECTION('',(1.E0,0.E0,0.E0));
#480=AXIS2_PLACEMENT_3D('',#477,#478,#479);
#481=CYLINDRICAL_SURFACE('',#480,1.25E0);
#483=ORIENTED_EDGE('',*,*,#482,.T.);
#484=ORIENTED_EDGE('',*,*,#472,.T.);
#486=ORIENTED_EDGE('',*,*,#485,.F.);
#487=ORIENTED_EDGE('',*,*,#468,.F.);
#488=EDGE_LOOP('',(#483,#484,#486,#487));
#489=FACE_OUTER_BOUND('',#488,.F.);
#490=ADVANCED_FACE('',(#489),#481,.F.);
#491=CARTESIAN_POINT('',(0.E0,-3.1E0,0.E0));
#492=DIRECTION('',(0.E0,1.E0,0.E0));
#493=DIRECTION('',(1.E0,0.E0,0.E0));
#494=AXIS2_PLACEMENT_3D('',#491,#492,#493);
#495=PLANE('',#494);
#496=ORIENTED_EDGE('',*,*,#485,.T.);
#497=ORIENTED_EDGE('',*,*,#470,.F.);
#498=EDGE_LOOP('',(#496,#497));
#499=FACE_OUTER_BOUND('',#498,.F.);
#500=ADVANCED_FACE('',(#499),#495,.T.);
#501=OPEN_SHELL('',(#476,#490,#500));
#502=MANIFOLD_SOLID_BREP('',#424);
#503=SHELL_BASED_SURFACE_MODEL('',(#501));
#505=DIMENSIONAL_EXPONENTS(0.E0,0.E0,0.E0,0.E0,0.E0,0.E0,0.E0);
#507=PLANE_ANGLE_MEASURE_WITH_UNIT(PLANE_ANGLE_MEASURE(1.745329251994E-2),#506);
#508=(CONVERSION_BASED_UNIT('DEGREE',#507)NAMED_UNIT(*)PLANE_ANGLE_UNIT());
#510=UNCERTAINTY_MEASURE_WITH_UNIT(LENGTH_MEASURE(1.140314319215E-3),#504,
'closure',
'Maximum model space distance between geometric entities at asserted connectivities');
#511=(GEOMETRIC_REPRESENTATION_CONTEXT(3)GLOBAL_UNCERTAINTY_ASSIGNED_CONTEXT((
#510))GLOBAL_UNIT_ASSIGNED_CONTEXT((#504,#508,#509))REPRESENTATION_CONTEXT
('ID1','3'));
#514=CARTESIAN_POINT('',(0.E0,0.E0,0.E0));
#515=DIRECTION('',(0.E0,0.E0,1.E0));
#516=DIRECTION('',(1.E0,0.E0,0.E0));
#519=SHAPE_REPRESENTATION_RELATIONSHIP('','',#518,#512);
#520=SHAPE_REPRESENTATION_RELATIONSHIP('','',#518,#513);
#521=APPLICATION_CONTEXT(
'CONFIGURATION CONTROLLED 3D DESIGNS OF MECHANICAL PARTS AND ASSEMBLIES');
#522=APPLICATION_PROTOCOL_DEFINITION('international standard',
'config_control_design',1994,#521);
#523=DESIGN_CONTEXT('',#521,'design');
#524=MECHANICAL_CONTEXT('',#521,'mechanical');
#525=PRODUCT('PT-4H','PT-4H','NOT SPECIFIED',(#524));
#526=PRODUCT_DEFINITION_FORMATION_WITH_SPECIFIED_SOURCE('15','LAST_VERSION',
#525,.MADE.);
#530=PRODUCT_CATEGORY('part','');
#531=PRODUCT_RELATED_PRODUCT_CATEGORY('detail','',(#525));
#532=PRODUCT_CATEGORY_RELATIONSHIP('','',#530,#531);
#533=SECURITY_CLASSIFICATION_LEVEL('unclassified');
#534=SECURITY_CLASSIFICATION('','',#533);
#535=CC_DESIGN_SECURITY_CLASSIFICATION(#534,(#526));
#536=APPROVAL_STATUS('approved');
#537=APPROVAL(#536,'');
#538=CC_DESIGN_APPROVAL(#537,(#534,#526,#527));
#539=CALENDAR_DATE(121,6,10);
#540=COORDINATED_UNIVERSAL_TIME_OFFSET(8,0,.AHEAD.);
#541=LOCAL_TIME(9,31,1.2E1,#540);
#542=DATE_AND_TIME(#539,#541);
#543=APPROVAL_DATE_TIME(#542,#537);
#544=DATE_TIME_ROLE('creation_date');
#545=CC_DESIGN_DATE_AND_TIME_ASSIGNMENT(#542,#544,(#527));
#546=DATE_TIME_ROLE('classification_date');
#547=CC_DESIGN_DATE_AND_TIME_ASSIGNMENT(#542,#546,(#534));
#548=PERSON('UNSPECIFIED','UNSPECIFIED',$,$,$,$);
#549=ORGANIZATION('UNSPECIFIED','UNSPECIFIED','UNSPECIFIED');
#550=PERSON_AND_ORGANIZATION(#548,#549);
#551=APPROVAL_ROLE('approver');
#552=APPROVAL_PERSON_ORGANIZATION(#550,#537,#551);
#553=PERSON_AND_ORGANIZATION_ROLE('creator');
#554=CC_DESIGN_PERSON_AND_ORGANIZATION_ASSIGNMENT(#550,#553,(#526,#527));
#555=PERSON_AND_ORGANIZATION_ROLE('design_supplier');
#556=CC_DESIGN_PERSON_AND_ORGANIZATION_ASSIGNMENT(#550,#555,(#526));
#557=PERSON_AND_ORGANIZATION_ROLE('classification_officer');
#558=CC_DESIGN_PERSON_AND_ORGANIZATION_ASSIGNMENT(#550,#557,(#534));
#559=PERSON_AND_ORGANIZATION_ROLE('design_owner');
#560=CC_DESIGN_PERSON_AND_ORGANIZATION_ASSIGNMENT(#550,#559,(#525));
#6=CIRCLE('',#5,1.8E0);
#11=CIRCLE('',#10,1.8E0);
#16=CIRCLE('',#15,1.75E0);
#21=CIRCLE('',#20,1.75E0);
#26=CIRCLE('',#25,5.254166666667E0);
#31=CIRCLE('',#30,5.254166666667E0);
#36=CIRCLE('',#35,1.75E0);
#45=CIRCLE('',#44,1.75E0);
#62=CIRCLE('',#61,2.E0);
#71=CIRCLE('',#70,2.E0);
#88=CIRCLE('',#87,2.E0);
#93=CIRCLE('',#92,2.E0);
#98=CIRCLE('',#97,1.35E0);
#103=CIRCLE('',#102,1.35E0);
#108=CIRCLE('',#107,1.8E0);
#113=CIRCLE('',#112,1.8E0);
#126=CIRCLE('',#125,1.05E0);
#135=CIRCLE('',#134,1.05E0);
#144=CIRCLE('',#143,1.05E0);
#149=CIRCLE('',#148,1.05E0);
#193=EDGE_CURVE('',#174,#175,#6,.T.);
#195=EDGE_CURVE('',#175,#174,#11,.T.);
#199=EDGE_CURVE('',#152,#153,#21,.T.);
#201=EDGE_CURVE('',#152,#153,#45,.T.);
#211=EDGE_CURVE('',#156,#157,#16,.T.);
#213=EDGE_CURVE('',#152,#156,#49,.T.);
#216=EDGE_CURVE('',#153,#157,#40,.T.);
#227=EDGE_CURVE('',#157,#159,#31,.T.);
#229=EDGE_CURVE('',#156,#159,#26,.T.);
#239=EDGE_CURVE('',#157,#156,#36,.T.);
#264=EDGE_CURVE('',#175,#179,#57,.T.);
#266=EDGE_CURVE('',#178,#179,#93,.T.);
#268=EDGE_CURVE('',#174,#178,#53,.T.);
#280=EDGE_CURVE('',#179,#178,#71,.T.);
#291=EDGE_CURVE('',#183,#182,#62,.T.);
#293=EDGE_CURVE('',#183,#179,#66,.T.);
#296=EDGE_CURVE('',#182,#178,#75,.T.);
#307=EDGE_CURVE('',#182,#186,#83,.T.);
#309=EDGE_CURVE('',#187,#186,#113,.T.);
#311=EDGE_CURVE('',#183,#187,#79,.T.);
#321=EDGE_CURVE('',#182,#183,#88,.T.);
#324=EDGE_CURVE('',#186,#187,#108,.T.);
#351=EDGE_CURVE('',#162,#163,#98,.T.);
#353=EDGE_CURVE('',#163,#162,#103,.T.);
#364=EDGE_CURVE('',#163,#167,#121,.T.);
#366=EDGE_CURVE('',#166,#167,#144,.T.);
#368=EDGE_CURVE('',#162,#166,#117,.T.);
#380=EDGE_CURVE('',#167,#166,#126,.T.);
#392=EDGE_CURVE('',#171,#166,#130,.T.);
#394=EDGE_CURVE('',#171,#170,#135,.T.);
#396=EDGE_CURVE('',#170,#167,#139,.T.);
#408=EDGE_CURVE('',#170,#171,#149,.T.);
#429=CIRCLE('',#428,1.25E0);
#434=CIRCLE('',#433,1.25E0);
#447=CIRCLE('',#446,1.25E0);
#452=CIRCLE('',#451,1.25E0);
#466=EDGE_CURVE('',#460,#459,#429,.T.);
#468=EDGE_CURVE('',#459,#455,#442,.T.);
#470=EDGE_CURVE('',#455,#456,#452,.T.);
#472=EDGE_CURVE('',#460,#456,#438,.T.);
#482=EDGE_CURVE('',#459,#460,#434,.T.);
#485=EDGE_CURVE('',#455,#456,#447,.T.);
#504=(LENGTH_UNIT()NAMED_UNIT(*)SI_UNIT(.MILLI.,.METRE.));
#506=(NAMED_UNIT(*)PLANE_ANGLE_UNIT()SI_UNIT($,.RADIAN.));
#509=(NAMED_UNIT(*)SI_UNIT($,.STERADIAN.)SOLID_ANGLE_UNIT());
#512=ADVANCED_BREP_SHAPE_REPRESENTATION('',(#502),#511);
#513=MANIFOLD_SURFACE_SHAPE_REPRESENTATION('',(#503),#511);
#517=AXIS2_PLACEMENT_3D('',#514,#515,#516);
#518=SHAPE_REPRESENTATION('',(#517),#511);
#527=PRODUCT_DEFINITION('design','',#526,#523);
#528=PRODUCT_DEFINITION_SHAPE('','SHAPE FOR PT-4H.',#527);
#529=SHAPE_DEFINITION_REPRESENTATION(#528,#518);
ENDSEC;
END-ISO-10303-21;
