ISO-10303-21;
HEADER;
FILE_DESCRIPTION((''),'2;1');
FILE_NAME('PT15L22','2020-06-18T13:53:55',('Administrator'),(''),
'CREO PARAMETRIC BY PTC INC, 2018400','CREO PARAMETRIC BY PTC INC, 2018400','');
FILE_SCHEMA(('AUTOMOTIVE_DESIGN { 1 0 10303 214 1 1 1 1 }'));
ENDSEC;
DATA;
#16=CARTESIAN_POINT('',(0.E0,0.E0,-1.1E1));
#17=DIRECTION('',(0.E0,0.E0,1.E0));
#18=DIRECTION('',(-6.614378277661E-1,7.5E-1,0.E0));
#19=AXIS2_PLACEMENT_3D('',#16,#17,#18);
#21=DIRECTION('',(-1.E0,0.E0,0.E0));
#22=VECTOR('',#21,2.645751311065E0);
#23=CARTESIAN_POINT('',(1.322875655532E0,1.5E0,-1.1E1));
#24=LINE('',#23,#22);
#25=CARTESIAN_POINT('',(0.E0,0.E0,-1.1E1));
#26=DIRECTION('',(0.E0,0.E0,-1.E0));
#27=DIRECTION('',(-1.E0,0.E0,0.E0));
#28=AXIS2_PLACEMENT_3D('',#25,#26,#27);
#30=CARTESIAN_POINT('',(0.E0,0.E0,-1.1E1));
#31=DIRECTION('',(0.E0,0.E0,-1.E0));
#32=DIRECTION('',(1.E0,0.E0,0.E0));
#33=AXIS2_PLACEMENT_3D('',#30,#31,#32);
#35=DIRECTION('',(0.E0,0.E0,1.E0));
#36=VECTOR('',#35,2.2E1);
#37=CARTESIAN_POINT('',(-1.322875655532E0,1.5E0,-1.1E1));
#38=LINE('',#37,#36);
#39=CARTESIAN_POINT('',(0.E0,0.E0,8.5E0));
#40=DIRECTION('',(0.E0,0.E0,1.E0));
#41=DIRECTION('',(-1.E0,0.E0,0.E0));
#42=AXIS2_PLACEMENT_3D('',#39,#40,#41);
#44=DIRECTION('',(0.E0,0.E0,1.E0));
#45=VECTOR('',#44,1.5E0);
#46=CARTESIAN_POINT('',(2.E0,0.E0,8.5E0));
#47=LINE('',#46,#45);
#48=CARTESIAN_POINT('',(0.E0,0.E0,1.E1));
#49=DIRECTION('',(0.E0,0.E0,-1.E0));
#50=DIRECTION('',(1.E0,0.E0,0.E0));
#51=AXIS2_PLACEMENT_3D('',#48,#49,#50);
#53=DIRECTION('',(0.E0,0.E0,1.E0));
#54=VECTOR('',#53,1.5E0);
#55=CARTESIAN_POINT('',(-2.E0,0.E0,8.5E0));
#56=LINE('',#55,#54);
#57=DIRECTION('',(0.E0,0.E0,1.E0));
#58=VECTOR('',#57,2.2E1);
#59=CARTESIAN_POINT('',(1.322875655532E0,1.5E0,-1.1E1));
#60=LINE('',#59,#58);
#61=CARTESIAN_POINT('',(0.E0,0.E0,1.1E1));
#62=DIRECTION('',(0.E0,0.E0,1.E0));
#63=DIRECTION('',(-6.614378277661E-1,7.5E-1,0.E0));
#64=AXIS2_PLACEMENT_3D('',#61,#62,#63);
#66=DIRECTION('',(-1.E0,0.E0,0.E0));
#67=VECTOR('',#66,2.645751311065E0);
#68=CARTESIAN_POINT('',(1.322875655532E0,1.5E0,1.1E1));
#69=LINE('',#68,#67);
#70=CARTESIAN_POINT('',(0.E0,0.E0,8.5E0));
#71=DIRECTION('',(0.E0,0.E0,1.E0));
#72=DIRECTION('',(-1.E0,0.E0,0.E0));
#73=AXIS2_PLACEMENT_3D('',#70,#71,#72);
#75=DIRECTION('',(0.E0,0.E0,1.E0));
#76=VECTOR('',#75,1.5E0);
#77=CARTESIAN_POINT('',(-5.E-1,0.E0,8.5E0));
#78=LINE('',#77,#76);
#79=DIRECTION('',(1.E0,0.E0,0.E0));
#80=VECTOR('',#79,1.5E0);
#81=CARTESIAN_POINT('',(-2.E0,0.E0,8.5E0));
#82=LINE('',#81,#80);
#83=DIRECTION('',(0.E0,0.E0,1.E0));
#84=VECTOR('',#83,1.5E0);
#85=CARTESIAN_POINT('',(5.E-1,0.E0,8.5E0));
#86=LINE('',#85,#84);
#87=DIRECTION('',(1.E0,0.E0,0.E0));
#88=VECTOR('',#87,1.5E0);
#89=CARTESIAN_POINT('',(5.E-1,0.E0,8.5E0));
#90=LINE('',#89,#88);
#91=CARTESIAN_POINT('',(0.E0,0.E0,1.E1));
#92=DIRECTION('',(0.E0,0.E0,1.E0));
#93=DIRECTION('',(-1.E0,0.E0,0.E0));
#94=AXIS2_PLACEMENT_3D('',#91,#92,#93);
#96=DIRECTION('',(1.E0,0.E0,0.E0));
#97=VECTOR('',#96,1.5E0);
#98=CARTESIAN_POINT('',(-2.E0,0.E0,1.E1));
#99=LINE('',#98,#97);
#100=DIRECTION('',(1.E0,0.E0,0.E0));
#101=VECTOR('',#100,1.5E0);
#102=CARTESIAN_POINT('',(5.E-1,0.E0,1.E1));
#103=LINE('',#102,#101);
#104=DIRECTION('',(0.E0,0.E0,-1.E0));
#105=VECTOR('',#104,2.E1);
#106=CARTESIAN_POINT('',(-1.1E0,0.E0,-1.1E1));
#107=LINE('',#106,#105);
#108=DIRECTION('',(0.E0,0.E0,-1.E0));
#109=VECTOR('',#108,2.E1);
#110=CARTESIAN_POINT('',(1.1E0,0.E0,-1.1E1));
#111=LINE('',#110,#109);
#112=CARTESIAN_POINT('',(0.E0,0.E0,-3.1E1));
#113=DIRECTION('',(0.E0,0.E0,-1.E0));
#114=DIRECTION('',(-1.E0,0.E0,0.E0));
#115=AXIS2_PLACEMENT_3D('',#112,#113,#114);
#117=CARTESIAN_POINT('',(0.E0,0.E0,-3.1E1));
#118=DIRECTION('',(0.E0,0.E0,-1.E0));
#119=DIRECTION('',(1.E0,0.E0,0.E0));
#120=AXIS2_PLACEMENT_3D('',#117,#118,#119);
#122=CARTESIAN_POINT('',(-1.322875655532E0,1.5E0,-1.1E1));
#123=CARTESIAN_POINT('',(1.322875655532E0,1.5E0,-1.1E1));
#124=VERTEX_POINT('',#122);
#125=VERTEX_POINT('',#123);
#126=CARTESIAN_POINT('',(-1.322875655532E0,1.5E0,1.1E1));
#127=CARTESIAN_POINT('',(1.322875655532E0,1.5E0,1.1E1));
#128=VERTEX_POINT('',#126);
#129=VERTEX_POINT('',#127);
#130=CARTESIAN_POINT('',(-1.1E0,0.E0,-3.1E1));
#131=CARTESIAN_POINT('',(1.1E0,0.E0,-3.1E1));
#132=VERTEX_POINT('',#130);
#133=VERTEX_POINT('',#131);
#134=CARTESIAN_POINT('',(-1.1E0,0.E0,-1.1E1));
#135=CARTESIAN_POINT('',(1.1E0,0.E0,-1.1E1));
#136=VERTEX_POINT('',#134);
#137=VERTEX_POINT('',#135);
#138=CARTESIAN_POINT('',(-2.E0,0.E0,8.5E0));
#139=CARTESIAN_POINT('',(2.E0,0.E0,8.5E0));
#140=VERTEX_POINT('',#138);
#141=VERTEX_POINT('',#139);
#142=CARTESIAN_POINT('',(-2.E0,0.E0,1.E1));
#143=VERTEX_POINT('',#142);
#144=CARTESIAN_POINT('',(2.E0,0.E0,1.E1));
#145=VERTEX_POINT('',#144);
#146=CARTESIAN_POINT('',(-5.E-1,0.E0,8.5E0));
#147=CARTESIAN_POINT('',(5.E-1,0.E0,8.5E0));
#148=VERTEX_POINT('',#146);
#149=VERTEX_POINT('',#147);
#150=CARTESIAN_POINT('',(-5.E-1,0.E0,1.E1));
#151=VERTEX_POINT('',#150);
#152=CARTESIAN_POINT('',(5.E-1,0.E0,1.E1));
#153=VERTEX_POINT('',#152);
#154=CARTESIAN_POINT('',(0.E0,0.E0,-1.1E1));
#155=DIRECTION('',(0.E0,0.E0,1.E0));
#156=DIRECTION('',(1.E0,0.E0,0.E0));
#157=AXIS2_PLACEMENT_3D('',#154,#155,#156);
#158=PLANE('',#157);
#160=ORIENTED_EDGE('',*,*,#159,.T.);
#162=ORIENTED_EDGE('',*,*,#161,.T.);
#163=EDGE_LOOP('',(#160,#162));
#164=FACE_OUTER_BOUND('',#163,.F.);
#166=ORIENTED_EDGE('',*,*,#165,.T.);
#168=ORIENTED_EDGE('',*,*,#167,.T.);
#169=EDGE_LOOP('',(#166,#168));
#170=FACE_BOUND('',#169,.F.);
#172=CARTESIAN_POINT('',(0.E0,0.E0,-1.1E1));
#173=DIRECTION('',(0.E0,0.E0,1.E0));
#174=DIRECTION('',(1.E0,0.E0,0.E0));
#175=AXIS2_PLACEMENT_3D('',#172,#173,#174);
#176=CYLINDRICAL_SURFACE('',#175,2.E0);
#177=ORIENTED_EDGE('',*,*,#159,.F.);
#179=ORIENTED_EDGE('',*,*,#178,.T.);
#181=ORIENTED_EDGE('',*,*,#180,.T.);
#183=ORIENTED_EDGE('',*,*,#182,.F.);
#184=EDGE_LOOP('',(#177,#179,#181,#183));
#185=FACE_OUTER_BOUND('',#184,.F.);
#187=ORIENTED_EDGE('',*,*,#186,.T.);
#189=ORIENTED_EDGE('',*,*,#188,.T.);
#191=ORIENTED_EDGE('',*,*,#190,.T.);
#193=ORIENTED_EDGE('',*,*,#192,.F.);
#194=EDGE_LOOP('',(#187,#189,#191,#193));
#195=FACE_BOUND('',#194,.F.);
#197=CARTESIAN_POINT('',(1.322875655532E0,1.5E0,-1.1E1));
#198=DIRECTION('',(0.E0,1.E0,0.E0));
#199=DIRECTION('',(-1.E0,0.E0,0.E0));
#200=AXIS2_PLACEMENT_3D('',#197,#198,#199);
#201=PLANE('',#200);
#202=ORIENTED_EDGE('',*,*,#161,.F.);
#203=ORIENTED_EDGE('',*,*,#182,.T.);
#205=ORIENTED_EDGE('',*,*,#204,.T.);
#206=ORIENTED_EDGE('',*,*,#178,.F.);
#207=EDGE_LOOP('',(#202,#203,#205,#206));
#208=FACE_OUTER_BOUND('',#207,.F.);
#210=CARTESIAN_POINT('',(0.E0,0.E0,1.1E1));
#211=DIRECTION('',(0.E0,0.E0,1.E0));
#212=DIRECTION('',(1.E0,0.E0,0.E0));
#213=AXIS2_PLACEMENT_3D('',#210,#211,#212);
#214=PLANE('',#213);
#215=ORIENTED_EDGE('',*,*,#180,.F.);
#216=ORIENTED_EDGE('',*,*,#204,.F.);
#217=EDGE_LOOP('',(#215,#216));
#218=FACE_OUTER_BOUND('',#217,.F.);
#220=CARTESIAN_POINT('',(-6.27E0,-2.E0,8.5E0));
#221=DIRECTION('',(0.E0,0.E0,-1.E0));
#222=DIRECTION('',(0.E0,1.E0,0.E0));
#223=AXIS2_PLACEMENT_3D('',#220,#221,#222);
#224=PLANE('',#223);
#226=ORIENTED_EDGE('',*,*,#225,.T.);
#228=ORIENTED_EDGE('',*,*,#227,.T.);
#229=ORIENTED_EDGE('',*,*,#186,.F.);
#231=ORIENTED_EDGE('',*,*,#230,.T.);
#232=EDGE_LOOP('',(#226,#228,#229,#231));
#233=FACE_OUTER_BOUND('',#232,.F.);
#235=CARTESIAN_POINT('',(0.E0,0.E0,8.5E0));
#236=DIRECTION('',(0.E0,0.E0,1.E0));
#237=DIRECTION('',(-1.E0,0.E0,0.E0));
#238=AXIS2_PLACEMENT_3D('',#235,#236,#237);
#239=CYLINDRICAL_SURFACE('',#238,5.E-1);
#240=ORIENTED_EDGE('',*,*,#225,.F.);
#242=ORIENTED_EDGE('',*,*,#241,.T.);
#244=ORIENTED_EDGE('',*,*,#243,.T.);
#246=ORIENTED_EDGE('',*,*,#245,.F.);
#247=EDGE_LOOP('',(#240,#242,#244,#246));
#248=FACE_OUTER_BOUND('',#247,.F.);
#250=FILL_AREA_STYLE_COLOUR('',#9);
#251=FILL_AREA_STYLE('',(#250));
#252=SURFACE_STYLE_FILL_AREA(#251);
#253=SURFACE_SIDE_STYLE('',(#252));
#254=SURFACE_STYLE_USAGE(.POSITIVE.,#253);
#255=PRESENTATION_STYLE_ASSIGNMENT((#254));
#256=STYLED_ITEM('',(#255),#249);
#257=CARTESIAN_POINT('',(-6.27E0,0.E0,8.5E0));
#258=DIRECTION('',(0.E0,1.E0,0.E0));
#259=DIRECTION('',(0.E0,0.E0,1.E0));
#260=AXIS2_PLACEMENT_3D('',#257,#258,#259);
#261=PLANE('',#260);
#262=ORIENTED_EDGE('',*,*,#241,.F.);
#263=ORIENTED_EDGE('',*,*,#230,.F.);
#264=ORIENTED_EDGE('',*,*,#192,.T.);
#266=ORIENTED_EDGE('',*,*,#265,.T.);
#267=EDGE_LOOP('',(#262,#263,#264,#266));
#268=FACE_OUTER_BOUND('',#267,.F.);
#270=CARTESIAN_POINT('',(-6.27E0,0.E0,8.5E0));
#271=DIRECTION('',(0.E0,1.E0,0.E0));
#272=DIRECTION('',(0.E0,0.E0,1.E0));
#273=AXIS2_PLACEMENT_3D('',#270,#271,#272);
#274=PLANE('',#273);
#275=ORIENTED_EDGE('',*,*,#245,.T.);
#277=ORIENTED_EDGE('',*,*,#276,.T.);
#278=ORIENTED_EDGE('',*,*,#188,.F.);
#279=ORIENTED_EDGE('',*,*,#227,.F.);
#280=EDGE_LOOP('',(#275,#277,#278,#279));
#281=FACE_OUTER_BOUND('',#280,.F.);
#283=CARTESIAN_POINT('',(-6.27E0,0.E0,1.E1));
#284=DIRECTION('',(0.E0,0.E0,1.E0));
#285=DIRECTION('',(0.E0,-1.E0,0.E0));
#286=AXIS2_PLACEMENT_3D('',#283,#284,#285);
#287=PLANE('',#286);
#288=ORIENTED_EDGE('',*,*,#243,.F.);
#289=ORIENTED_EDGE('',*,*,#265,.F.);
#290=ORIENTED_EDGE('',*,*,#190,.F.);
#291=ORIENTED_EDGE('',*,*,#276,.F.);
#292=EDGE_LOOP('',(#288,#289,#290,#291));
#293=FACE_OUTER_BOUND('',#292,.F.);
#295=CARTESIAN_POINT('',(0.E0,0.E0,-1.1E1));
#296=DIRECTION('',(0.E0,0.E0,-1.E0));
#297=DIRECTION('',(-1.E0,0.E0,0.E0));
#298=AXIS2_PLACEMENT_3D('',#295,#296,#297);
#299=CYLINDRICAL_SURFACE('',#298,1.1E0);
#300=ORIENTED_EDGE('',*,*,#165,.F.);
#302=ORIENTED_EDGE('',*,*,#301,.T.);
#304=ORIENTED_EDGE('',*,*,#303,.T.);
#306=ORIENTED_EDGE('',*,*,#305,.F.);
#307=EDGE_LOOP('',(#300,#302,#304,#306));
#308=FACE_OUTER_BOUND('',#307,.F.);
#310=FILL_AREA_STYLE_COLOUR('',#8);
#311=FILL_AREA_STYLE('',(#310));
#312=SURFACE_STYLE_FILL_AREA(#311);
#313=SURFACE_SIDE_STYLE('',(#312));
#314=SURFACE_STYLE_USAGE(.POSITIVE.,#313);
#315=PRESENTATION_STYLE_ASSIGNMENT((#314));
#316=STYLED_ITEM('',(#315),#309);
#317=CARTESIAN_POINT('',(0.E0,0.E0,-1.1E1));
#318=DIRECTION('',(0.E0,0.E0,-1.E0));
#319=DIRECTION('',(-1.E0,0.E0,0.E0));
#320=AXIS2_PLACEMENT_3D('',#317,#318,#319);
#321=CYLINDRICAL_SURFACE('',#320,1.1E0);
#322=ORIENTED_EDGE('',*,*,#167,.F.);
#323=ORIENTED_EDGE('',*,*,#305,.T.);
#325=ORIENTED_EDGE('',*,*,#324,.T.);
#326=ORIENTED_EDGE('',*,*,#301,.F.);
#327=EDGE_LOOP('',(#322,#323,#325,#326));
#328=FACE_OUTER_BOUND('',#327,.F.);
#330=FILL_AREA_STYLE_COLOUR('',#8);
#331=FILL_AREA_STYLE('',(#330));
#332=SURFACE_STYLE_FILL_AREA(#331);
#333=SURFACE_SIDE_STYLE('',(#332));
#334=SURFACE_STYLE_USAGE(.POSITIVE.,#333);
#335=PRESENTATION_STYLE_ASSIGNMENT((#334));
#336=STYLED_ITEM('',(#335),#329);
#337=CARTESIAN_POINT('',(0.E0,0.E0,-3.1E1));
#338=DIRECTION('',(0.E0,0.E0,-1.E0));
#339=DIRECTION('',(-1.E0,0.E0,0.E0));
#340=AXIS2_PLACEMENT_3D('',#337,#338,#339);
#341=PLANE('',#340);
#342=ORIENTED_EDGE('',*,*,#303,.F.);
#343=ORIENTED_EDGE('',*,*,#324,.F.);
#344=EDGE_LOOP('',(#342,#343));
#345=FACE_OUTER_BOUND('',#344,.F.);
#347=FILL_AREA_STYLE_COLOUR('',#8);
#348=FILL_AREA_STYLE('',(#347));
#349=SURFACE_STYLE_FILL_AREA(#348);
#350=SURFACE_SIDE_STYLE('',(#349));
#351=SURFACE_STYLE_USAGE(.POSITIVE.,#350);
#352=PRESENTATION_STYLE_ASSIGNMENT((#351));
#353=STYLED_ITEM('',(#352),#346);
#354=CLOSED_SHELL('',(#171,#196,#209,#219,#234,#249,#269,#282,#294,#309,#329,
#346));
#355=MANIFOLD_SOLID_BREP('',#354);
#358=PLANE_ANGLE_MEASURE_WITH_UNIT(PLANE_ANGLE_MEASURE(1.745329251994E-2),#357);
#359=(CONVERSION_BASED_UNIT('DEGREE',#358)NAMED_UNIT(*)PLANE_ANGLE_UNIT());
#361=UNCERTAINTY_MEASURE_WITH_UNIT(LENGTH_MEASURE(4.233341590794E-3),#356,
'distance_accuracy_value',
'Maximum model space distance between geometric entities at asserted connectivities');
#364=MECHANICAL_DESIGN_GEOMETRIC_PRESENTATION_REPRESENTATION('',(#256,#316,#336,
#353),#362);
#365=APPLICATION_CONTEXT('automotive_design');
#366=APPLICATION_PROTOCOL_DEFINITION('international standard',
'automotive_design',2001,#365);
#367=PRODUCT_DEFINITION_CONTEXT('part definition',#365,'design');
#368=PRODUCT_CONTEXT('',#365,'mechanical');
#369=PRODUCT('PT15L22','PT15L22','NOT SPECIFIED',(#368));
#370=PRODUCT_DEFINITION_FORMATION('3','LAST_VERSION',#369);
#378=DERIVED_UNIT_ELEMENT(#377,2.E0);
#379=DERIVED_UNIT((#378));
#380=MEASURE_REPRESENTATION_ITEM('surface area measure',AREA_MEASURE(
4.418280285020E2),#379);
#385=DERIVED_UNIT_ELEMENT(#384,3.E0);
#386=DERIVED_UNIT((#385));
#387=MEASURE_REPRESENTATION_ITEM('volume measure',VOLUME_MEASURE(
3.237052453154E2),#386);
#391=CARTESIAN_POINT('centre point',(3.365876351384E-6,-8.056536950870E-2,
-5.184617439603E0));
#396=DERIVED_UNIT_ELEMENT(#395,2.E0);
#397=DERIVED_UNIT((#396));
#398=MEASURE_REPRESENTATION_ITEM('surface area measure',AREA_MEASURE(
4.418280285020E2),#397);
#403=DERIVED_UNIT_ELEMENT(#402,3.E0);
#404=DERIVED_UNIT((#403));
#405=MEASURE_REPRESENTATION_ITEM('volume measure',VOLUME_MEASURE(
3.237052453154E2),#404);
#409=CARTESIAN_POINT('centre point',(3.365876351384E-6,-8.056536950870E-2,
-5.184617439603E0));
#414=PRODUCT_RELATED_PRODUCT_CATEGORY('part','',(#369));
#1=DRAUGHTING_PRE_DEFINED_COLOUR('green');
#2=COLOUR_RGB('',1.1E-2,1.2E-2,1.E0);
#3=COLOUR_RGB('',4.1E-1,2.61589E-1,1.12848E-1);
#4=COLOUR_RGB('',5.04854E-1,1.5455E-2,1.5455E-2);
#5=COLOUR_RGB('',6.35294E-1,6.86275E-1,7.4902E-1);
#6=COLOUR_RGB('',6.40777E-1,6.40777E-1,6.40777E-1);
#7=COLOUR_RGB('',6.69062E-1,6.69903E-1,6.55217E-1);
#8=COLOUR_RGB('',6.86275E-1,3.13725E-1,2.35294E-1);
#9=COLOUR_RGB('',8.03922E-1,5.88235E-1,1.96078E-1);
#10=COLOUR_RGB('',9.21569E-1,7.05882E-1,4.70588E-1);
#11=DRAUGHTING_PRE_DEFINED_COLOUR('red');
#12=DRAUGHTING_PRE_DEFINED_COLOUR('yellow');
#13=COLOUR_RGB('',1.E0,1.E0,5.3E-1);
#14=COLOUR_RGB('',1.E0,1.E0,9.49E-1);
#15=DRAUGHTING_PRE_DEFINED_COLOUR('white');
#20=CIRCLE('',#19,2.E0);
#29=CIRCLE('',#28,1.1E0);
#34=CIRCLE('',#33,1.1E0);
#43=CIRCLE('',#42,2.E0);
#52=CIRCLE('',#51,2.E0);
#65=CIRCLE('',#64,2.E0);
#74=CIRCLE('',#73,5.E-1);
#95=CIRCLE('',#94,5.E-1);
#116=CIRCLE('',#115,1.1E0);
#121=CIRCLE('',#120,1.1E0);
#159=EDGE_CURVE('',#124,#125,#20,.T.);
#161=EDGE_CURVE('',#125,#124,#24,.T.);
#165=EDGE_CURVE('',#136,#137,#29,.T.);
#167=EDGE_CURVE('',#137,#136,#34,.T.);
#171=ADVANCED_FACE('',(#164,#170),#158,.F.);
#178=EDGE_CURVE('',#124,#128,#38,.T.);
#180=EDGE_CURVE('',#128,#129,#65,.T.);
#182=EDGE_CURVE('',#125,#129,#60,.T.);
#186=EDGE_CURVE('',#140,#141,#43,.T.);
#188=EDGE_CURVE('',#141,#145,#47,.T.);
#190=EDGE_CURVE('',#145,#143,#52,.T.);
#192=EDGE_CURVE('',#140,#143,#56,.T.);
#196=ADVANCED_FACE('',(#185,#195),#176,.T.);
#204=EDGE_CURVE('',#129,#128,#69,.T.);
#209=ADVANCED_FACE('',(#208),#201,.T.);
#219=ADVANCED_FACE('',(#218),#214,.T.);
#225=EDGE_CURVE('',#148,#149,#74,.T.);
#227=EDGE_CURVE('',#149,#141,#90,.T.);
#230=EDGE_CURVE('',#140,#148,#82,.T.);
#234=ADVANCED_FACE('',(#233),#224,.F.);
#241=EDGE_CURVE('',#148,#151,#78,.T.);
#243=EDGE_CURVE('',#151,#153,#95,.T.);
#245=EDGE_CURVE('',#149,#153,#86,.T.);
#249=ADVANCED_FACE('',(#248),#239,.T.);
#265=EDGE_CURVE('',#143,#151,#99,.T.);
#269=ADVANCED_FACE('',(#268),#261,.F.);
#276=EDGE_CURVE('',#153,#145,#103,.T.);
#282=ADVANCED_FACE('',(#281),#274,.F.);
#294=ADVANCED_FACE('',(#293),#287,.F.);
#301=EDGE_CURVE('',#136,#132,#107,.T.);
#303=EDGE_CURVE('',#132,#133,#116,.T.);
#305=EDGE_CURVE('',#137,#133,#111,.T.);
#309=ADVANCED_FACE('',(#308),#299,.T.);
#324=EDGE_CURVE('',#133,#132,#121,.T.);
#329=ADVANCED_FACE('',(#328),#321,.T.);
#346=ADVANCED_FACE('',(#345),#341,.T.);
#356=(LENGTH_UNIT()NAMED_UNIT(*)SI_UNIT(.MILLI.,.METRE.));
#357=(NAMED_UNIT(*)PLANE_ANGLE_UNIT()SI_UNIT($,.RADIAN.));
#360=(NAMED_UNIT(*)SI_UNIT($,.STERADIAN.)SOLID_ANGLE_UNIT());
#362=(GEOMETRIC_REPRESENTATION_CONTEXT(3)GLOBAL_UNCERTAINTY_ASSIGNED_CONTEXT((
#361))GLOBAL_UNIT_ASSIGNED_CONTEXT((#356,#359,#360))REPRESENTATION_CONTEXT
('ID1','3'));
#363=ADVANCED_BREP_SHAPE_REPRESENTATION('',(#355),#362);
#371=PRODUCT_DEFINITION('part definition','',#370,#367);
#372=PRODUCT_DEFINITION_SHAPE('','SHAPE FOR PT15L22.',#371);
#373=SHAPE_ASPECT('','solid data associated with PT15L22',#372,.F.);
#374=PROPERTY_DEFINITION('',
'shape for solid data with which properties are associated',#373);
#375=SHAPE_REPRESENTATION('',(#355),#362);
#376=SHAPE_DEFINITION_REPRESENTATION(#374,#375);
#377=(LENGTH_UNIT()NAMED_UNIT(*)SI_UNIT(.MILLI.,.METRE.));
#381=PROPERTY_DEFINITION('geometric validation property','area of PT15L22',
#373);
#382=REPRESENTATION('surface area',(#380),#362);
#383=PROPERTY_DEFINITION_REPRESENTATION(#381,#382);
#384=(LENGTH_UNIT()NAMED_UNIT(*)SI_UNIT(.MILLI.,.METRE.));
#388=PROPERTY_DEFINITION('geometric validation property','volume of PT15L22',
#373);
#389=REPRESENTATION('volume',(#387),#362);
#390=PROPERTY_DEFINITION_REPRESENTATION(#388,#389);
#392=PROPERTY_DEFINITION('geometric validation property','centroid of PT15L22',
#373);
#393=REPRESENTATION('centroid',(#391),#362);
#394=PROPERTY_DEFINITION_REPRESENTATION(#392,#393);
#395=(LENGTH_UNIT()NAMED_UNIT(*)SI_UNIT(.MILLI.,.METRE.));
#399=PROPERTY_DEFINITION('geometric validation property','area of PT15L22',
#372);
#400=REPRESENTATION('surface area',(#398),#362);
#401=PROPERTY_DEFINITION_REPRESENTATION(#399,#400);
#402=(LENGTH_UNIT()NAMED_UNIT(*)SI_UNIT(.MILLI.,.METRE.));
#406=PROPERTY_DEFINITION('geometric validation property','volume of PT15L22',
#372);
#407=REPRESENTATION('volume',(#405),#362);
#408=PROPERTY_DEFINITION_REPRESENTATION(#406,#407);
#410=PROPERTY_DEFINITION('geometric validation property','centroid of PT15L22',
#372);
#411=REPRESENTATION('centroid',(#409),#362);
#412=PROPERTY_DEFINITION_REPRESENTATION(#410,#411);
#413=SHAPE_DEFINITION_REPRESENTATION(#372,#363);
ENDSEC;
END-ISO-10303-21;
